  0
SECTION
  2
HEADER
  9
$ACADVER
  1
AC1015
  9
$ACADMAINTVER
 70
    20
  9
$DWGCODEPAGE
  3
ANSI_1252
  9
$INSBASE
 10
0.0
 20
0.0
 30
0.0
  9
$EXTMIN
 10
-112.7171973713331
 20
-166.3195210000002
 30
-0.0000000000000066
  9
$EXTMAX
 10
221.9414973069476
 20
143.0945759999997
 30
0.0000000000000031
  9
$LIMMIN
 10
-20.0
 20
-0.021978
  9
$LIMMAX
 10
2645.85
 20
758.35
  9
$ORTHOMODE
 70
     1
  9
$REGENMODE
 70
     1
  9
$FILLMODE
 70
     1
  9
$QTEXTMODE
 70
     0
  9
$MIRRTEXT
 70
     1
  9
$LTSCALE
 40
10.0
  9
$ATTMODE
 70
     1
  9
$TEXTSIZE
 40
0.0
  9
$TRACEWID
 40
0.05
  9
$TEXTSTYLE
  7
Standard
  9
$CLAYER
  8
0
  9
$CELTYPE
  6
Continuous
  9
$CECOLOR
 62
   256
  9
$CELTSCALE
 40
1.0
  9
$DISPSILH
 70
     0
  9
$DIMSCALE
 40
1.0
  9
$DIMASZ
 40
1.25
  9
$DIMEXO
 40
0.0
  9
$DIMDLI
 40
0.38
  9
$DIMRND
 40
0.0
  9
$DIMDLE
 40
0.0
  9
$DIMEXE
 40
0.75
  9
$DIMTP
 40
0.0
  9
$DIMTM
 40
0.0
  9
$DIMTXT
 40
2.5
  9
$DIMCEN
 40
0.09
  9
$DIMTSZ
 40
0.0
  9
$DIMTOL
 70
     0
  9
$DIMLIM
 70
     0
  9
$DIMTIH
 70
     0
  9
$DIMTOH
 70
     0
  9
$DIMSE1
 70
     0
  9
$DIMSE2
 70
     0
  9
$DIMTAD
 70
     1
  9
$DIMZIN
 70
     0
  9
$DIMBLK
  1

  9
$DIMASO
 70
     1
  9
$DIMSHO
 70
     1
  9
$DIMPOST
  1

  9
$DIMAPOST
  1

  9
$DIMALT
 70
     0
  9
$DIMALTD
 70
     2
  9
$DIMALTF
 40
25.4
  9
$DIMLFAC
 40
1.0
  9
$DIMTOFL
 70
     0
  9
$DIMTVP
 40
0.0
  9
$DIMTIX
 70
     0
  9
$DIMSOXD
 70
     0
  9
$DIMSAH
 70
     0
  9
$DIMBLK1
  1

  9
$DIMBLK2
  1

  9
$DIMSTYLE
  2
Standard
  9
$DIMCLRD
 70
     7
  9
$DIMCLRE
 70
     7
  9
$DIMCLRT
 70
     7
  9
$DIMTFAC
 40
0.8
  9
$DIMGAP
 40
1.25
  9
$DIMJUST
 70
     0
  9
$DIMSD1
 70
     0
  9
$DIMSD2
 70
     0
  9
$DIMTOLJ
 70
     1
  9
$DIMTZIN
 70
     0
  9
$DIMALTZ
 70
     0
  9
$DIMALTTZ
 70
     0
  9
$DIMUPT
 70
     0
  9
$DIMDEC
 70
     2
  9
$DIMTDEC
 70
     4
  9
$DIMALTU
 70
     2
  9
$DIMALTTD
 70
     2
  9
$DIMTXSTY
  7
Standard
  9
$DIMAUNIT
 70
     0
  9
$DIMADEC
 70
     0
  9
$DIMALTRND
 40
0.0
  9
$DIMAZIN
 70
     0
  9
$DIMDSEP
 70
     0
  9
$DIMATFIT
 70
     3
  9
$DIMFRAC
 70
     0
  9
$DIMLDRBLK
  1

  9
$DIMLUNIT
 70
     2
  9
$DIMLWD
 70
     0
  9
$DIMLWE
 70
     0
  9
$DIMTMOVE
 70
     0
  9
$LUNITS
 70
     2
  9
$LUPREC
 70
     4
  9
$SKETCHINC
 40
0.1
  9
$FILLETRAD
 40
0.0
  9
$AUNITS
 70
     0
  9
$AUPREC
 70
     0
  9
$MENU
  1
acad
  9
$ELEVATION
 40
0.0
  9
$PELEVATION
 40
0.0
  9
$THICKNESS
 40
0.0
  9
$LIMCHECK
 70
     0
  9
$CHAMFERA
 40
0.0
  9
$CHAMFERB
 40
0.0
  9
$CHAMFERC
 40
0.0
  9
$CHAMFERD
 40
0.0
  9
$SKPOLY
 70
     0
  9
$TDCREATE
 40
2455329.702198484
  9
$TDUCREATE
 40
2455329.618865150
  9
$TDUPDATE
 40
2455336.715547813
  9
$TDUUPDATE
 40
2455336.632214479
  9
$TDINDWG
 40
0.0296756597
  9
$TDUSRTIMER
 40
0.0296736690
  9
$USRTIMER
 70
     1
  9
$ANGBASE
 50
0.0
  9
$ANGDIR
 70
     0
  9
$PDMODE
 70
     0
  9
$PDSIZE
 40
0.0
  9
$PLINEWID
 40
0.0
  9
$SPLFRAME
 70
     0
  9
$SPLINETYPE
 70
     6
  9
$SPLINESEGS
 70
     8
  9
$HANDSEED
  5
7371
  9
$SURFTAB1
 70
     6
  9
$SURFTAB2
 70
     6
  9
$SURFTYPE
 70
     6
  9
$SURFU
 70
     6
  9
$SURFV
 70
     6
  9
$UCSBASE
  2

  9
$UCSNAME
  2

  9
$UCSORG
 10
0.0
 20
0.0
 30
0.0
  9
$UCSXDIR
 10
1.0
 20
0.0
 30
0.0
  9
$UCSYDIR
 10
0.0
 20
1.0
 30
0.0
  9
$UCSORTHOREF
  2

  9
$UCSORTHOVIEW
 70
     0
  9
$UCSORGTOP
 10
0.0
 20
0.0
 30
0.0
  9
$UCSORGBOTTOM
 10
0.0
 20
0.0
 30
0.0
  9
$UCSORGLEFT
 10
0.0
 20
0.0
 30
0.0
  9
$UCSORGRIGHT
 10
0.0
 20
0.0
 30
0.0
  9
$UCSORGFRONT
 10
0.0
 20
0.0
 30
0.0
  9
$UCSORGBACK
 10
0.0
 20
0.0
 30
0.0
  9
$PUCSBASE
  2

  9
$PUCSNAME
  2

  9
$PUCSORG
 10
0.0
 20
0.0
 30
0.0
  9
$PUCSXDIR
 10
1.0
 20
0.0
 30
0.0
  9
$PUCSYDIR
 10
0.0
 20
1.0
 30
0.0
  9
$PUCSORTHOREF
  2

  9
$PUCSORTHOVIEW
 70
     0
  9
$PUCSORGTOP
 10
0.0
 20
0.0
 30
0.0
  9
$PUCSORGBOTTOM
 10
0.0
 20
0.0
 30
0.0
  9
$PUCSORGLEFT
 10
0.0
 20
0.0
 30
0.0
  9
$PUCSORGRIGHT
 10
0.0
 20
0.0
 30
0.0
  9
$PUCSORGFRONT
 10
0.0
 20
0.0
 30
0.0
  9
$PUCSORGBACK
 10
0.0
 20
0.0
 30
0.0
  9
$USERI1
 70
     0
  9
$USERI2
 70
     0
  9
$USERI3
 70
     0
  9
$USERI4
 70
     0
  9
$USERI5
 70
     0
  9
$USERR1
 40
0.0
  9
$USERR2
 40
0.0
  9
$USERR3
 40
0.0
  9
$USERR4
 40
0.0
  9
$USERR5
 40
0.0
  9
$WORLDVIEW
 70
     1
  9
$SHADEDGE
 70
     3
  9
$SHADEDIF
 70
    70
  9
$TILEMODE
 70
     1
  9
$MAXACTVP
 70
    16
  9
$PINSBASE
 10
0.0
 20
0.0
 30
0.0
  9
$PLIMCHECK
 70
     0
  9
$PEXTMIN
 10
1.000000000000000E+20
 20
1.000000000000000E+20
 30
1.000000000000000E+20
  9
$PEXTMAX
 10
-1.000000000000000E+20
 20
-1.000000000000000E+20
 30
-1.000000000000000E+20
  9
$PLIMMIN
 10
0.0
 20
0.0
  9
$PLIMMAX
 10
12.0
 20
9.0
  9
$UNITMODE
 70
     0
  9
$VISRETAIN
 70
     0
  9
$PLINEGEN
 70
     1
  9
$PSLTSCALE
 70
     0
  9
$TREEDEPTH
 70
  3020
  9
$CMLSTYLE
  2
Standard
  9
$CMLJUST
 70
     0
  9
$CMLSCALE
 40
1.0
  9
$PROXYGRAPHICS
 70
     0
  9
$MEASUREMENT
 70
     1
  9
$CELWEIGHT
370
     0
  9
$ENDCAPS
280
     0
  9
$JOINSTYLE
280
     0
  9
$LWDISPLAY
290
     0
  9
$INSUNITS
 70
     0
  9
$HYPERLINKBASE
  1

  9
$STYLESHEET
  1

  9
$XEDIT
290
     1
  9
$CEPSNTYPE
380
     0
  9
$PSTYLEMODE
290
     1
  9
$FINGERPRINTGUID
  2

  9
$VERSIONGUID
  2
{51712AC0-E7A2-4370-A73F-891447445426}
  9
$EXTNAMES
290
     1
  9
$PSVPSCALE
 40
0.0
  9
$OLESTARTUP
290
     0
  0
ENDSEC
  0
SECTION
  2
CLASSES
  0
CLASS
  1
IMAGE
  2
AcDbRasterImage
  3
ISM
 90
    34943
280
     0
281
     1
  0
CLASS
  1
DICTIONARYVAR
  2
AcDbDictionaryVar
  3
ObjectDBX Classes
 90
        0
280
     0
281
     0
  0
CLASS
  1
RASTERVARIABLES
  2
AcDbRasterVariables
  3
ISM
 90
    32768
280
     0
281
     0
  0
CLASS
  1
IMAGEDEF
  2
AcDbRasterImageDef
  3
ISM
 90
    32768
280
     0
281
     0
  0
CLASS
  1
IMAGEDEF_REACTOR
  2
AcDbRasterImageDefReactor
  3
ISM
 90
    32769
280
     0
281
     0
  0
CLASS
  1
IDBUFFER
  2
AcDbIdBuffer
  3
ObjectDBX Classes
 90
    32768
280
     0
281
     0
  0
CLASS
  1
SPATIAL_FILTER
  2
AcDbSpatialFilter
  3
ObjectDBX Classes
 90
    32768
280
     0
281
     0
  0
CLASS
  1
SORTENTSTABLE
  2
AcDbSortentsTable
  3
ObjectDBX Classes
 90
        0
280
     0
281
     0
  0
CLASS
  1
LAYER_INDEX
  2
AcDbLayerIndex
  3
ObjectDBX Classes
 90
    32768
280
     0
281
     0
  0
CLASS
  1
SPATIAL_INDEX
  2
AcDbSpatialIndex
  3
ObjectDBX Classes
 90
    32768
280
     0
281
     0
  0
CLASS
  1
OBJECT_PTR
  2
CAseDLPNTableRecord
  3
ASE-LPNTableRecord
 90
    32769
280
     0
281
     0
  0
CLASS
  1
LAYOUT
  2
AcDbLayout
  3
ObjectDBX Classes
 90
        0
280
     0
281
     0
  0
CLASS
  1
PLOTSETTINGS
  2
AcDbPlotSettings
  3
ObjectDBX Classes
 90
    32768
280
     0
281
     0
  0
CLASS
  1
ACDBDICTIONARYWDFLT
  2
AcDbDictionaryWithDefault
  3
ObjectDBX Classes
 90
        0
280
     0
281
     0
  0
CLASS
  1
ACDBPLACEHOLDER
  2
AcDbPlaceHolder
  3
ObjectDBX Classes
 90
        0
280
     0
281
     0
  0
CLASS
  1
VBA_PROJECT
  2
AcDbVbaProject
  3
acad
 90
    32768
280
     0
281
     0
  0
CLASS
  1
WIPEOUT
  2
AcDbWipeout
  3
"WipeOut|Product Desc: Object Enabler for WipeOut entity                        |Company: Autodesk, Inc.                        |WEB Address: www.autodesk.com"
 90
    34943
280
     0
281
     1
  0
CLASS
  1
WIPEOUTVARIABLES
  2
AcDbWipeoutVariables
  3
"WipeOut|Product Desc:     WipeOut Dbx Application|Company:          Autodesk, Inc.|WEB Address:      www.autodesk.com"
 90
        0
280
     0
281
     0
  0
CLASS
  1
RTEXT
  2
RText
  3
RText|AutoCAD Express Tool|expresstools@autodesk.com
 90
    35839
280
     0
281
     1
  0
CLASS
  1
ARCALIGNEDTEXT
  2
AcDbArcAlignedText
  3
ATEXT|AutoCAD Express Tool|expresstools@autodesk.com
 90
    32768
280
     0
281
     1
  0
CLASS
  1
MATERIAL
  2
AcDbMaterial
  3
ObjectDBX Classes
 90
     1153
280
     0
281
     0
  0
CLASS
  1
VISUALSTYLE
  2
AcDbVisualStyle
  3
ObjectDBX Classes
 90
     4095
280
     0
281
     0
  0
CLASS
  1
TABLESTYLE
  2
AcDbTableStyle
  3
ObjectDBX Classes
 90
     4095
280
     0
281
     0
  0
CLASS
  1
SCALE
  2
AcDbScale
  3
ObjectDBX Classes
 90
     1153
280
     0
281
     0
  0
CLASS
  1
MLEADERSTYLE
  2
AcDbMLeaderStyle
  3
ACDB_MLEADERSTYLE_CLASS
 90
     4095
280
     0
281
     0
  0
CLASS
  1
CELLSTYLEMAP
  2
AcDbCellStyleMap
  3
ObjectDBX Classes
 90
     1152
280
     0
281
     0
  0
ENDSEC
  0
SECTION
  2
TABLES
  0
TABLE
  2
VPORT
  5
7
330
0
100
AcDbSymbolTable
 70
     1
  0
VPORT
  5
15
330
7
100
AcDbSymbolTableRecord
100
AcDbViewportTableRecord
  2
*ACTIVE
 70
     0
 10
0.0
 20
0.0
 11
1.0
 21
1.0
 12
51.78589805885048
 22
-7.764635996379467
 13
0.0
 23
0.0
 14
1.0
 24
1.0
 15
0.0
 25
0.0
 16
0.0
 26
0.0
 36
1.0
 17
0.0
 27
0.0
 37
0.0
 40
350.093996467362
 41
1.611330698287219
 42
50.0
 43
0.0
 44
0.0
 50
0.0
 51
0.0
 71
     0
 72
   100
 73
     1
 74
     1
 75
     0
 76
     0
 77
     0
 78
     0
281
     0
 65
     0
110
0.0
120
0.0
130
0.0
111
1.0
121
0.0
131
0.0
112
0.0
122
1.0
132
0.0
 79
     0
146
0.0
  0
ENDTAB
  0
TABLE
  2
LTYPE
  5
4
330
0
100
AcDbSymbolTable
 70
     2
  0
LTYPE
  5
11
330
4
100
AcDbSymbolTableRecord
100
AcDbLinetypeTableRecord
  2
ByBlock
 70
     0
  3

 72
    65
 73
     0
 40
0.0
  0
LTYPE
  5
12
330
4
100
AcDbSymbolTableRecord
100
AcDbLinetypeTableRecord
  2
ByLayer
 70
     0
  3

 72
    65
 73
     0
 40
0.0
  0
LTYPE
  5
13
330
4
100
AcDbSymbolTableRecord
100
AcDbLinetypeTableRecord
  2
Continuous
 70
     0
  3
Solid line
 72
    65
 73
     0
 40
0.0
  0
LTYPE
  5
2A2
330
4
100
AcDbSymbolTableRecord
100
AcDbLinetypeTableRecord
  2
CENTER
 70
     0
  3
____ _ ____ _ ____ _ ____ _ ____ _ ____ _ ____
 72
    65
 73
     4
 40
2.0
 49
1.25
 74
     0
 49
-0.25
 74
     0
 49
0.25
 74
     0
 49
-0.25
 74
     0
  0
ENDTAB
  0
TABLE
  2
LAYER
  5
2
330
0
100
AcDbSymbolTable
 70
     2
  0
LAYER
  5
14
102
{ACAD_XDICTIONARY
360
72C9
102
}
330
2
100
AcDbSymbolTableRecord
100
AcDbLayerTableRecord
  2
0
 70
     0
 62
     7
  6
Continuous
370
    -3
390
1D
  0
LAYER
  5
733D
330
2
100
AcDbSymbolTableRecord
100
AcDbLayerTableRecord
  2
Defpoints
 70
     0
 62
     7
  6
Continuous
290
     0
370
    -3
390
1D
  0
ENDTAB
  0
TABLE
  2
STYLE
  5
3
330
0
100
AcDbSymbolTable
 70
     1
  0
STYLE
  5
17
330
3
100
AcDbSymbolTableRecord
100
AcDbTextStyleTableRecord
  2
Standard
 70
     0
 40
0.0
 41
1.0
 50
0.0
 71
     0
 42
0.0
  3
IsonormD
  4

1001
ACAD
1000
IsonormD
1071
        0
  0
ENDTAB
  0
TABLE
  2
VIEW
  5
5
330
0
100
AcDbSymbolTable
 70
     0
  0
ENDTAB
  0
TABLE
  2
UCS
  5
6
330
0
100
AcDbSymbolTable
 70
     0
  0
ENDTAB
  0
TABLE
  2
APPID
  5
8
330
0
100
AcDbSymbolTable
 70
     5
  0
APPID
  5
16
330
8
100
AcDbSymbolTableRecord
100
AcDbRegAppTableRecord
  2
ACAD
 70
     0
  0
APPID
  5
26
330
8
100
AcDbSymbolTableRecord
100
AcDbRegAppTableRecord
  2
TopSolid_Draft
 70
     0
  0
APPID
  5
39AF
330
8
100
AcDbSymbolTableRecord
100
AcDbRegAppTableRecord
  2
ACAD_MLEADERVER
 70
     0
  0
APPID
  5
72C7
330
8
100
AcDbSymbolTableRecord
100
AcDbRegAppTableRecord
  2
DCO15
 70
     0
  0
APPID
  5
7330
330
8
100
AcDbSymbolTableRecord
100
AcDbRegAppTableRecord
  2
ACAD_EXEMPT_FROM_CAD_STANDARDS
 70
     0
  0
ENDTAB
  0
TABLE
  2
DIMSTYLE
  5
9
330
0
100
AcDbSymbolTable
 70
     1
100
AcDbDimStyleTable
 71
     1
340
18
  0
DIMSTYLE
105
18
330
9
100
AcDbSymbolTableRecord
100
AcDbDimStyleTableRecord
  2
Standard
 70
     0
 41
1.25
 42
0.0
 44
0.75
 73
     0
 74
     0
 77
     1
140
2.5
146
0.8
147
1.25
176
     7
177
     7
178
     7
271
     2
340
17
  0
ENDTAB
  0
TABLE
  2
BLOCK_RECORD
  5
1
330
0
100
AcDbSymbolTable
 70
     0
  0
BLOCK_RECORD
  5
A
102
{ACAD_XDICTIONARY
360
39B7
102
}
330
1
100
AcDbSymbolTableRecord
100
AcDbBlockTableRecord
  2
*MODEL_SPACE
340
20
  0
BLOCK_RECORD
  5
B
330
1
100
AcDbSymbolTableRecord
100
AcDbBlockTableRecord
  2
*PAPER_SPACE
340
21
  0
ENDTAB
  0
ENDSEC
  0
SECTION
  2
BLOCKS
  0
BLOCK
  5
D
330
A
100
AcDbEntity
  8
0
100
AcDbBlockBegin
  2
*MODEL_SPACE
 70
     0
 10
0.0
 20
0.0
 30
0.0
  3
*MODEL_SPACE
  1

  0
ENDBLK
  5
E
330
A
100
AcDbEntity
  8
0
100
AcDbBlockEnd
  0
BLOCK
  5
F
330
B
100
AcDbEntity
 67
     1
  8
0
100
AcDbBlockBegin
  2
*PAPER_SPACE
 70
     0
 10
0.0
 20
0.0
 30
0.0
  3
*PAPER_SPACE
  1

  0
ENDBLK
  5
10
330
B
100
AcDbEntity
 67
     1
  8
0
100
AcDbBlockEnd
  0
ENDSEC
  0
SECTION
  2
ENTITIES
  0
LINE
  5
1184
330
A
100
AcDbEntity
  8
0
  6
CENTER
 62
     1
100
AcDbLine
 10
67.25
 20
-30.0
 30
0.0
 11
67.25
 21
-25.4176480000001
 31
0.0
  0
LINE
  5
1185
330
A
100
AcDbEntity
  8
0
  6
CENTER
 62
     1
100
AcDbLine
 10
67.25
 20
30.0
 30
0.0
 11
67.25
 21
25.4176480000001
 31
0.0
  0
LINE
  5
1187
330
A
100
AcDbEntity
  8
0
  6
CENTER
 62
     1
100
AcDbLine
 10
78.01742399999989
 20
-21.0
 30
0.0
 11
82.8000000000002
 21
-21.0
 31
0.0
  0
LINE
  5
1188
330
A
100
AcDbEntity
  8
0
  6
CENTER
 62
     1
100
AcDbLine
 10
78.01742399999989
 20
21.0
 30
0.0
 11
82.8000000000002
 21
21.0
 31
0.0
  0
LINE
  5
1191
330
A
100
AcDbEntity
  8
0
  6
CENTER
 62
     1
100
AcDbLine
 10
37.25
 20
120.344944
 30
0.0
 11
50.25
 21
120.344944
 31
0.0
  0
LINE
  5
1192
330
A
100
AcDbEntity
  8
0
  6
CENTER
 62
     1
100
AcDbLine
 10
43.75
 20
113.844944
 30
0.0
 11
43.75
 21
126.844944
 31
0.0
  0
LINE
  5
1193
330
A
100
AcDbEntity
  8
0
  6
CENTER
 62
     1
100
AcDbLine
 10
-0.25
 20
114.344944
 30
0.0
 11
-0.25
 21
97.04494399999964
 31
0.0
  0
LINE
  5
1194
330
A
100
AcDbEntity
  8
0
  6
CENTER
 62
     1
100
AcDbLine
 10
44.75
 20
114.344944
 30
0.0
 11
44.75
 21
97.04494399999964
 31
0.0
  0
LINE
  5
1195
330
A
100
AcDbEntity
  8
0
  6
CENTER
 62
     1
100
AcDbLine
 10
162.7223229999999
 20
-30.0
 30
0.0
 11
162.7223229999999
 21
-25.4176480000001
 31
0.0
  0
LINE
  5
1196
330
A
100
AcDbEntity
  8
0
  6
CENTER
 62
     1
100
AcDbLine
 10
162.7223229999999
 20
30.0
 30
0.0
 11
162.7223229999999
 21
25.4176480000001
 31
0.0
  0
LINE
  5
1197
330
A
100
AcDbEntity
  8
0
  6
CENTER
 62
     1
100
AcDbLine
 10
135.7719549999999
 20
-47.0000000000001
 30
0.0
 11
150.171955
 21
-47.0000000000001
 31
0.0
  0
LINE
  5
1198
330
A
100
AcDbEntity
  8
0
  6
CENTER
 62
     1
100
AcDbLine
 10
142.9719549999999
 20
-54.20000000000015
 30
0.0
 11
142.9719549999999
 21
-39.79999999999995
 31
0.0
  0
LINE
  5
1199
330
A
100
AcDbEntity
  8
0
  6
CENTER
 62
     1
100
AcDbLine
 10
135.7719549999999
 20
47.0
 30
0.0
 11
150.171955
 21
47.0
 31
0.0
  0
LINE
  5
119A
330
A
100
AcDbEntity
  8
0
  6
CENTER
 62
     1
100
AcDbLine
 10
142.9719549999999
 20
39.79999999999995
 30
0.0
 11
142.9719549999999
 21
54.20000000000015
 31
0.0
  0
LINE
  5
119B
330
A
100
AcDbEntity
  8
0
  6
CENTER
 62
     1
100
AcDbLine
 10
148.672323
 20
0.0040719999997236
 30
0.0
 11
155.7723229999999
 21
0.0040719999997236
 31
0.0
  0
LINE
  5
119C
330
A
100
AcDbEntity
  8
0
  6
CENTER
 62
     1
100
AcDbLine
 10
152.2223229999999
 20
-3.545928000000116
 30
0.0
 11
152.2223229999999
 21
3.554072000000018
 31
0.0
  0
LINE
  5
119D
330
A
100
AcDbEntity
  8
0
  6
CENTER
 62
     1
100
AcDbLine
 10
159.1682500000001
 20
-10.49999900000023
 30
0.0
 11
166.26825
 21
-10.49999900000023
 31
0.0
  0
LINE
  5
119E
330
A
100
AcDbEntity
  8
0
  6
CENTER
 62
     1
100
AcDbLine
 10
162.7182500000001
 20
-14.04999900000018
 30
0.0
 11
162.7182500000001
 21
-6.949999000000275
 31
0.0
  0
LINE
  5
119F
330
A
100
AcDbEntity
  8
0
  6
CENTER
 62
     1
100
AcDbLine
 10
147.2223180000001
 20
0.011400999999978
 30
0.0
 11
178.2223269999999
 21
0.011400999999978
 31
0.0
  0
LINE
  5
11A0
330
A
100
AcDbEntity
  8
0
  6
CENTER
 62
     1
100
AcDbLine
 10
159.1763949999999
 20
10.49999899999989
 30
0.0
 11
166.2763950000001
 21
10.49999899999989
 31
0.0
  0
LINE
  5
11A1
330
A
100
AcDbEntity
  8
0
  6
CENTER
 62
     1
100
AcDbLine
 10
162.7263950000001
 20
6.949999000000047
 30
0.0
 11
162.7263950000001
 21
14.04999900000007
 31
0.0
  0
LINE
  5
11A2
330
A
100
AcDbEntity
  8
0
  6
CENTER
 62
     1
100
AcDbLine
 10
164.7719549999999
 20
-47.0000000000001
 30
0.0
 11
179.171955
 21
-47.0000000000001
 31
0.0
  0
LINE
  5
11A3
330
A
100
AcDbEntity
  8
0
  6
CENTER
 62
     1
100
AcDbLine
 10
171.9719549999999
 20
-54.20000000000015
 30
0.0
 11
171.9719549999999
 21
-39.79999999999995
 31
0.0
  0
LINE
  5
11A4
330
A
100
AcDbEntity
  8
0
  6
CENTER
 62
     1
100
AcDbLine
 10
164.7719549999999
 20
47.0
 30
0.0
 11
179.171955
 21
47.0
 31
0.0
  0
LINE
  5
11A5
330
A
100
AcDbEntity
  8
0
  6
CENTER
 62
     1
100
AcDbLine
 10
171.9719549999999
 20
39.79999999999995
 30
0.0
 11
171.9719549999999
 21
54.20000000000015
 31
0.0
  0
LINE
  5
11A6
330
A
100
AcDbEntity
  8
0
  6
CENTER
 62
     1
100
AcDbLine
 10
169.6723219999999
 20
-0.004071999999951
 30
0.0
 11
176.772322
 21
-0.004071999999951
 31
0.0
  0
LINE
  5
11A7
330
A
100
AcDbEntity
  8
0
  6
CENTER
 62
     1
100
AcDbLine
 10
173.222322
 20
-3.554072000000018
 30
0.0
 11
173.222322
 21
3.545927999999776
 31
0.0
  0
LINE
  5
11A8
330
A
100
AcDbEntity
  8
0
  6
CENTER
 62
     1
100
AcDbLine
 10
132.422323
 20
0.0
 30
0.0
 11
177.7223229999999
 21
0.0
 31
0.0
  0
LINE
  5
11A9
330
A
100
AcDbEntity
  8
0
  6
CENTER
 62
     1
100
AcDbLine
 10
162.7223220000001
 20
-15.48860400000001
 30
0.0
 11
162.7223220000001
 21
15.51140499999997
 31
0.0
  0
LINE
  5
11AA
330
A
100
AcDbEntity
  8
0
  6
CENTER
 62
     1
100
AcDbLine
 10
44.75
 20
-109.3449440000003
 30
0.0
 11
44.75
 21
-92.04494400000015
 31
0.0
  0
LINE
  5
11AB
330
A
100
AcDbEntity
  8
0
  6
CENTER
 62
     1
100
AcDbLine
 10
-0.25
 20
-109.3449440000003
 30
0.0
 11
-0.25
 21
-92.04494400000015
 31
0.0
  0
LINE
  5
11AC
330
A
100
AcDbEntity
  8
0
  6
CENTER
 62
     1
100
AcDbLine
 10
-110.7171969999999
 20
-47.0000000000001
 30
0.0
 11
-101.7171969999999
 21
-47.0000000000001
 31
0.0
  0
LINE
  5
11AD
330
A
100
AcDbEntity
  8
0
  6
CENTER
 62
     1
100
AcDbLine
 10
-106.2171969999999
 20
-51.5
 30
0.0
 11
-106.2171969999999
 21
-42.5
 31
0.0
  0
LINE
  5
11AE
330
A
100
AcDbEntity
  8
0
  6
CENTER
 62
     1
100
AcDbLine
 10
-109.7171969999999
 20
-21.0
 30
0.0
 11
-102.7171969999999
 21
-21.0
 31
0.0
  0
LINE
  5
11AF
330
A
100
AcDbEntity
  8
0
  6
CENTER
 62
     1
100
AcDbLine
 10
-106.2171969999999
 20
-24.5
 30
0.0
 11
-106.2171969999999
 21
-17.5
 31
0.0
  0
LINE
  5
11B0
330
A
100
AcDbEntity
  8
0
  6
CENTER
 62
     1
100
AcDbLine
 10
-109.7171969999999
 20
21.0
 30
0.0
 11
-102.7171969999999
 21
21.0
 31
0.0
  0
LINE
  5
11B1
330
A
100
AcDbEntity
  8
0
  6
CENTER
 62
     1
100
AcDbLine
 10
-106.2171969999999
 20
17.5
 30
0.0
 11
-106.2171969999999
 21
24.5
 31
0.0
  0
LINE
  5
11B2
330
A
100
AcDbEntity
  8
0
  6
CENTER
 62
     1
100
AcDbLine
 10
-110.7171969999999
 20
47.0
 30
0.0
 11
-101.7171969999999
 21
47.0
 31
0.0
  0
LINE
  5
11B3
330
A
100
AcDbEntity
  8
0
  6
CENTER
 62
     1
100
AcDbLine
 10
-106.2171969999999
 20
42.5
 30
0.0
 11
-106.2171969999999
 21
51.5
 31
0.0
  0
LINE
  5
11B4
330
A
100
AcDbEntity
  8
0
  6
CENTER
 62
     1
100
AcDbLine
 10
-104.167197
 20
-32.5
 30
0.0
 11
-89.76719699999987
 21
-32.5
 31
0.0
  0
LINE
  5
11B5
330
A
100
AcDbEntity
  8
0
  6
CENTER
 62
     1
100
AcDbLine
 10
-96.96719699999995
 20
-39.70000000000005
 30
0.0
 11
-96.96719699999995
 21
-25.29999999999996
 31
0.0
  0
LINE
  5
11B6
330
A
100
AcDbEntity
  8
0
  6
CENTER
 62
     1
100
AcDbLine
 10
-104.167197
 20
32.5
 30
0.0
 11
-89.76719699999987
 21
32.5
 31
0.0
  0
LINE
  5
11B7
330
A
100
AcDbEntity
  8
0
  6
CENTER
 62
     1
100
AcDbLine
 10
-96.96719699999995
 20
25.29999999999973
 30
0.0
 11
-96.96719699999995
 21
39.70000000000005
 31
0.0
  0
LINE
  5
11B8
330
A
100
AcDbEntity
  8
0
  6
CENTER
 62
     1
100
AcDbLine
 10
-81.71719699999995
 20
-47.0000000000001
 30
0.0
 11
-72.71719699999993
 21
-47.0000000000001
 31
0.0
  0
LINE
  5
11B9
330
A
100
AcDbEntity
  8
0
  6
CENTER
 62
     1
100
AcDbLine
 10
-77.21719699999993
 20
-51.5
 30
0.0
 11
-77.21719699999993
 21
-42.5
 31
0.0
  0
LINE
  5
11BA
330
A
100
AcDbEntity
  8
0
  6
CENTER
 62
     1
100
AcDbLine
 10
-81.71719699999995
 20
47.0
 30
0.0
 11
-72.71719699999993
 21
47.0
 31
0.0
  0
LINE
  5
11BB
330
A
100
AcDbEntity
  8
0
  6
CENTER
 62
     1
100
AcDbLine
 10
-77.21719699999993
 20
42.5
 30
0.0
 11
-77.21719699999993
 21
51.5
 31
0.0
  0
LINE
  5
11BC
330
A
100
AcDbEntity
  8
0
  6
CENTER
 62
     1
100
AcDbLine
 10
-71.71756499999992
 20
0.0
 30
0.0
 11
-64.21756499999992
 21
0.0
 31
0.0
  0
LINE
  5
11BD
330
A
100
AcDbEntity
  8
0
  6
CENTER
 62
     1
100
AcDbLine
 10
-67.96756499999992
 20
-3.750000000000226
 30
0.0
 11
-67.96756499999992
 21
3.749999999999886
 31
0.0
  0
CIRCLE
  5
63CE
330
A
100
AcDbEntity
  8
0
  6
Continuous
 62
     7
100
AcDbCircle
 10
-96.96719699999995
 20
32.5
 30
0.0
 40
5.0
  0
LINE
  5
63CF
330
A
100
AcDbEntity
  8
0
  6
Continuous
 62
     7
100
AcDbLine
 10
-98.46731499999988
 20
33.36582099999976
 30
0.0
 11
-96.9674329999998
 21
34.23205099999973
 31
0.0
  0
LINE
  5
63D0
330
A
100
AcDbEntity
  8
0
  6
Continuous
 62
     7
100
AcDbLine
 10
-98.467079
 20
31.63377000000004
 30
0.0
 11
-98.46731499999988
 21
33.36582099999976
 31
0.0
  0
LINE
  5
63D1
330
A
100
AcDbEntity
  8
0
  6
Continuous
 62
     7
100
AcDbLine
 10
-96.96696100000009
 20
30.76794900000005
 30
0.0
 11
-98.467079
 21
31.63377000000004
 31
0.0
  0
LINE
  5
63D2
330
A
100
AcDbEntity
  8
0
  6
Continuous
 62
     7
100
AcDbLine
 10
-96.9674329999998
 20
34.23205099999973
 30
0.0
 11
-95.46731499999987
 21
33.36622999999975
 31
0.0
  0
LINE
  5
63D3
330
A
100
AcDbEntity
  8
0
  6
Continuous
 62
     7
100
AcDbLine
 10
-95.46731499999987
 20
33.36622999999975
 30
0.0
 11
-95.46707899999999
 21
31.63417900000002
 31
0.0
  0
LINE
  5
63D4
330
A
100
AcDbEntity
  8
0
  6
Continuous
 62
     7
100
AcDbLine
 10
-95.46707899999999
 20
31.63417900000002
 30
0.0
 11
-96.96696100000009
 21
30.76794900000005
 31
0.0
  0
ARC
  5
63D5
330
A
100
AcDbEntity
  8
0
  6
Continuous
 62
     7
100
AcDbCircle
 10
-155.4475649999999
 20
0.0
 30
0.0
 40
95.0
100
AcDbArc
 50
349.7042060000008
 51
10.29579399999904
  0
ARC
  5
63D6
330
A
100
AcDbEntity
  8
0
  6
Continuous
 62
     7
100
AcDbCircle
 10
-101.3331659999999
 20
-9.830149000000004
 30
0.0
 40
40.0
100
AcDbArc
 50
333.7846460000007
 51
349.7042060000008
  0
LINE
  5
63D7
330
A
100
AcDbEntity
  8
0
  6
Continuous
 62
     7
100
AcDbLine
 10
-70.71719699999992
 20
-27.5
 30
0.0
 11
-65.44756499999992
 21
-27.5
 31
0.0
  0
ARC
  5
63D8
330
A
100
AcDbEntity
  8
0
  6
Continuous
 62
     7
100
AcDbCircle
 10
-101.3331659999999
 20
9.830149000000004
 30
0.0
 40
40.0
100
AcDbArc
 50
10.29579399999904
 51
26.21535399999931
  0
CIRCLE
  5
63D9
330
A
100
AcDbEntity
  8
0
  6
Continuous
 62
     7
100
AcDbCircle
 10
-67.96756499999992
 20
0.0
 30
0.0
 40
1.75
  0
LINE
  5
63DA
330
A
100
AcDbEntity
  8
0
  6
Continuous
 62
     7
100
AcDbLine
 10
-65.44756499999992
 20
27.5
 30
0.0
 11
-70.71719699999992
 21
27.5
 31
0.0
  0
LINE
  5
63DB
330
A
100
AcDbEntity
  8
0
  6
Continuous
 62
     7
100
AcDbLine
 10
-69.41386499999999
 20
0.8347069999997529
 30
0.0
 11
-69.4898270000001
 21
0.596201999999721
 31
0.0
  0
LINE
  5
63F1
330
A
100
AcDbEntity
  8
0
  6
Continuous
 62
     7
100
AcDbLine
 10
-69.4898270000001
 20
-0.5962120000001505
 30
0.0
 11
-69.41386499999999
 21
-0.8347069999999803
 31
0.0
  0
LINE
  5
6407
330
A
100
AcDbEntity
  8
0
  6
Continuous
 62
     7
100
AcDbLine
 10
-68.16756499999996
 20
1.5
 30
0.0
 11
-68.16756499999996
 21
1.738533999999958
 31
0.0
  0
LINE
  5
6408
330
A
100
AcDbEntity
  8
0
  6
Continuous
 62
     7
100
AcDbLine
 10
-68.16756499999996
 20
-1.738533999999958
 30
0.0
 11
-68.16756499999996
 21
-1.5
 31
0.0
  0
LINE
  5
6409
330
A
100
AcDbEntity
  8
0
  6
Continuous
 62
     7
100
AcDbLine
 10
-69.22104200000013
 20
-1.221185999999988
 30
0.0
 11
-69.22104200000013
 21
-1.067795000000272
 31
0.0
  0
LINE
  5
640A
330
A
100
AcDbEntity
  8
0
  6
Continuous
 62
     7
100
AcDbLine
 10
-69.22104200000013
 20
1.06779500000016
 30
0.0
 11
-69.22104200000013
 21
1.221185999999988
 31
0.0
  0
CIRCLE
  5
640B
330
A
100
AcDbEntity
  8
0
  6
Continuous
 62
     9
100
AcDbCircle
 10
-106.2171969999999
 20
21.0
 30
0.0
 40
0.085189
  0
CIRCLE
  5
640C
330
A
100
AcDbEntity
  8
0
  6
Continuous
 62
     9
100
AcDbCircle
 10
-106.2171969999999
 20
21.0
 30
0.0
 40
1.483271
  0
CIRCLE
  5
640D
330
A
100
AcDbEntity
  8
0
  6
Continuous
 62
     9
100
AcDbCircle
 10
-106.2171969999999
 20
-21.0
 30
0.0
 40
1.483271
  0
CIRCLE
  5
640E
330
A
100
AcDbEntity
  8
0
  6
Continuous
 62
     9
100
AcDbCircle
 10
-106.2171969999999
 20
-21.0
 30
0.0
 40
0.085189
  0
CIRCLE
  5
640F
330
A
100
AcDbEntity
  8
0
  6
Continuous
 62
     7
100
AcDbCircle
 10
-96.96719699999995
 20
-32.5
 30
0.0
 40
5.0
  0
LINE
  5
6410
330
A
100
AcDbEntity
  8
0
  6
Continuous
 62
     7
100
AcDbLine
 10
-95.46718699999997
 20
-31.63399200000026
 30
0.0
 11
-95.46720699999992
 21
-33.36604299999999
 31
0.0
  0
LINE
  5
6411
330
A
100
AcDbEntity
  8
0
  6
Continuous
 62
     7
100
AcDbLine
 10
-96.967177
 20
-30.76794900000027
 30
0.0
 11
-95.46718699999997
 21
-31.63399200000026
 31
0.0
  0
LINE
  5
6412
330
A
100
AcDbEntity
  8
0
  6
Continuous
 62
     7
100
AcDbLine
 10
-98.46720699999991
 20
-33.36600799999997
 30
0.0
 11
-98.46718699999996
 21
-31.63395700000001
 31
0.0
  0
LINE
  5
6413
330
A
100
AcDbEntity
  8
0
  6
Continuous
 62
     7
100
AcDbLine
 10
-98.46718699999996
 20
-31.63395700000001
 30
0.0
 11
-96.967177
 21
-30.76794900000027
 31
0.0
  0
LINE
  5
6414
330
A
100
AcDbEntity
  8
0
  6
Continuous
 62
     7
100
AcDbLine
 10
-95.46720699999992
 20
-33.36604299999999
 30
0.0
 11
-96.96721700000013
 21
-34.23205099999997
 31
0.0
  0
LINE
  5
6415
330
A
100
AcDbEntity
  8
0
  6
Continuous
 62
     7
100
AcDbLine
 10
-96.96721700000013
 20
-34.23205099999997
 30
0.0
 11
-98.46720699999991
 21
-33.36600799999997
 31
0.0
  0
ARC
  5
6416
330
A
100
AcDbEntity
  8
0
  6
Continuous
 62
     7
100
AcDbCircle
 10
-91.71719699999995
 20
0.0
 30
0.0
 40
55.0
100
AcDbArc
 50
247.5536490000071
 51
292.4463509999929
  0
LINE
  5
6417
330
A
100
AcDbEntity
  8
0
  6
Continuous
 62
     7
100
AcDbLine
 10
-112.7171969999999
 20
50.83305999999982
 30
0.0
 11
-112.7171969999999
 21
-50.83305999999993
 31
0.0
  0
ARC
  5
6418
330
A
100
AcDbEntity
  8
0
  6
Continuous
 62
     7
100
AcDbCircle
 10
-91.71719699999995
 20
0.0
 30
0.0
 40
55.0
100
AcDbArc
 50
67.5536490000071
 51
112.4463509999929
  0
CIRCLE
  5
6419
330
A
100
AcDbEntity
  8
0
  6
Continuous
 62
     7
100
AcDbCircle
 10
-77.21719699999993
 20
-47.0000000000001
 30
0.0
 40
2.5
  0
CIRCLE
  5
641A
330
A
100
AcDbEntity
  8
0
  6
Continuous
 62
     7
100
AcDbCircle
 10
-106.2171969999999
 20
-47.0000000000001
 30
0.0
 40
2.5
  0
CIRCLE
  5
641B
330
A
100
AcDbEntity
  8
0
  6
Continuous
 62
     7
100
AcDbCircle
 10
-106.2171969999999
 20
-21.0
 30
0.0
 40
1.5
  0
CIRCLE
  5
641C
330
A
100
AcDbEntity
  8
0
  6
Continuous
 62
     7
100
AcDbCircle
 10
-96.96719699999995
 20
-32.5
 30
0.0
 40
5.2
  0
LINE
  5
641D
330
A
100
AcDbEntity
  8
0
  6
Continuous
 62
     7
100
AcDbLine
 10
-70.71719699999992
 20
-50.83305999999993
 30
0.0
 11
-70.71719699999992
 21
50.83305999999982
 31
0.0
  0
CIRCLE
  5
641E
330
A
100
AcDbEntity
  8
0
  6
Continuous
 62
     7
100
AcDbCircle
 10
-96.96719699999995
 20
32.5
 30
0.0
 40
5.2
  0
CIRCLE
  5
641F
330
A
100
AcDbEntity
  8
0
  6
Continuous
 62
     7
100
AcDbCircle
 10
-77.21719699999993
 20
47.0
 30
0.0
 40
2.5
  0
CIRCLE
  5
6420
330
A
100
AcDbEntity
  8
0
  6
Continuous
 62
     7
100
AcDbCircle
 10
-106.2171969999999
 20
21.0
 30
0.0
 40
1.5
  0
CIRCLE
  5
6421
330
A
100
AcDbEntity
  8
0
  6
Continuous
 62
     7
100
AcDbCircle
 10
-106.2171969999999
 20
47.0
 30
0.0
 40
2.5
  0
ARC
  5
6422
330
A
100
AcDbEntity
  8
0
  6
Continuous
 62
     7
100
AcDbCircle
 10
-68.16756499999996
 20
0.0
 30
0.0
 40
1.5
100
AcDbArc
 50
270.0
 51
90.0
  0
ARC
  5
6423
330
A
100
AcDbEntity
  8
0
  6
Continuous
 62
     7
100
AcDbCircle
 10
-68.16756499999996
 20
0.0
 30
0.0
 40
1.5
100
AcDbArc
 50
213.8123079999969
 51
270.0
  0
ARC
  5
6424
330
A
100
AcDbEntity
  8
0
  6
Continuous
 62
     7
100
AcDbCircle
 10
-68.16756499999996
 20
0.0
 30
0.0
 40
1.5
100
AcDbArc
 50
90.0
 51
146.1876719999977
  0
LINE
  5
6425
330
A
100
AcDbEntity
  8
0
  6
Continuous
 62
     7
100
AcDbLine
 10
-69.4898270000001
 20
0.5961660000000393
 30
0.0
 11
-69.4898270000001
 21
-0.5961999999999536
 31
0.0
  0
LINE
  5
6426
330
A
100
AcDbEntity
  8
0
  6
Continuous
 62
     7
100
AcDbLine
 10
137.122323
 20
3.000004999999986
 30
0.0
 11
137.122323
 21
-3.000004999999986
 31
0.0
  0
LINE
  5
6427
330
A
100
AcDbEntity
  8
0
  6
Continuous
 62
     7
100
AcDbLine
 10
137.7223229999999
 20
9.5
 30
0.0
 11
137.7223229999999
 21
-9.499999000000002
 31
0.0
  0
LINE
  5
6428
330
A
100
AcDbEntity
  8
0
  6
Continuous
 62
     9
100
AcDbLine
 10
146.7223229999999
 20
22.43478300000004
 30
0.0
 11
144.7223229999999
 21
22.43478300000004
 31
0.0
  0
LINE
  5
6429
330
A
100
AcDbEntity
  8
0
  6
Continuous
 62
     9
100
AcDbLine
 10
146.7223229999999
 20
0.0
 30
0.0
 11
144.7223229999999
 21
0.0
 31
0.0
  0
LINE
  5
642A
330
A
100
AcDbEntity
  8
0
  6
Continuous
 62
     7
100
AcDbLine
 10
146.7223229999999
 20
22.43478300000004
 30
0.0
 11
146.7223229999999
 21
0.0
 31
0.0
  0
LINE
  5
642B
330
A
100
AcDbEntity
  8
0
  6
Continuous
 62
     7
100
AcDbLine
 10
144.7223229999999
 20
22.43478300000004
 30
0.0
 11
144.7223229999999
 21
0.0
 31
0.0
  0
LINE
  5
642C
330
A
100
AcDbEntity
  8
0
  6
Continuous
 62
     9
100
AcDbLine
 10
146.7223229999999
 20
-22.43478300000028
 30
0.0
 11
144.7223229999999
 21
-22.43478300000028
 31
0.0
  0
LINE
  5
642D
330
A
100
AcDbEntity
  8
0
  6
Continuous
 62
     7
100
AcDbLine
 10
146.7223229999999
 20
0.0
 30
0.0
 11
146.7223229999999
 21
-22.43478300000028
 31
0.0
  0
LINE
  5
642E
330
A
100
AcDbEntity
  8
0
  6
Continuous
 62
     7
100
AcDbLine
 10
144.7223229999999
 20
0.0
 30
0.0
 11
144.7223229999999
 21
-22.43478300000028
 31
0.0
  0
LINE
  5
642F
330
A
100
AcDbEntity
  8
0
  6
Continuous
 62
     7
100
AcDbLine
 10
146.7223229999999
 20
26.5
 30
0.0
 11
144.7223229999999
 21
26.5
 31
0.0
  0
LINE
  5
6430
330
A
100
AcDbEntity
  8
0
  6
Continuous
 62
     7
100
AcDbLine
 10
146.7223229999999
 20
26.5
 30
0.0
 11
146.7223229999999
 21
22.43478300000004
 31
0.0
  0
LINE
  5
6431
330
A
100
AcDbEntity
  8
0
  6
Continuous
 62
     7
100
AcDbLine
 10
144.7223229999999
 20
26.5
 30
0.0
 11
144.7223229999999
 21
22.43478300000004
 31
0.0
  0
LINE
  5
6432
330
A
100
AcDbEntity
  8
0
  6
Continuous
 62
     7
100
AcDbLine
 10
146.7223229999999
 20
-26.5
 30
0.0
 11
144.7223229999999
 21
-26.5
 31
0.0
  0
LINE
  5
6433
330
A
100
AcDbEntity
  8
0
  6
Continuous
 62
     7
100
AcDbLine
 10
146.7223229999999
 20
-22.43478300000028
 30
0.0
 11
146.7223229999999
 21
-26.5
 31
0.0
  0
LINE
  5
6434
330
A
100
AcDbEntity
  8
0
  6
Continuous
 62
     7
100
AcDbLine
 10
144.7223229999999
 20
-22.43478300000028
 30
0.0
 11
144.7223229999999
 21
-26.5
 31
0.0
  0
LINE
  5
6435
330
A
100
AcDbEntity
  8
0
  6
Continuous
 62
     7
100
AcDbLine
 10
136.7223229999999
 20
-21.5
 30
0.0
 11
136.7223229999999
 21
-11.5
 31
0.0
  0
LINE
  5
6436
330
A
100
AcDbEntity
  8
0
  6
Continuous
 62
     7
100
AcDbLine
 10
136.7223229999999
 20
11.5
 30
0.0
 11
136.7223229999999
 21
21.5
 31
0.0
  0
LINE
  5
6437
330
A
100
AcDbEntity
  8
0
  6
Continuous
 62
     9
100
AcDbLine
 10
147.7223229999999
 20
0.0
 30
0.0
 11
146.7223229999999
 21
0.0
 31
0.0
  0
LINE
  5
6438
330
A
100
AcDbEntity
  8
0
  6
Continuous
 62
     9
100
AcDbLine
 10
147.7223229999999
 20
-22.43478300000028
 30
0.0
 11
146.7223229999999
 21
-22.43478300000028
 31
0.0
  0
LINE
  5
6439
330
A
100
AcDbEntity
  8
0
  6
Continuous
 62
     7
100
AcDbLine
 10
146.7223229999999
 20
0.0
 30
0.0
 11
146.7223229999999
 21
-22.43478300000028
 31
0.0
  0
LINE
  5
643A
330
A
100
AcDbEntity
  8
0
  6
Continuous
 62
     9
100
AcDbLine
 10
147.7223229999999
 20
22.43478300000004
 30
0.0
 11
146.7223229999999
 21
22.43478300000004
 31
0.0
  0
LINE
  5
643B
330
A
100
AcDbEntity
  8
0
  6
Continuous
 62
     7
100
AcDbLine
 10
146.7223229999999
 20
22.43478300000004
 30
0.0
 11
146.7223229999999
 21
0.0
 31
0.0
  0
LINE
  5
643C
330
A
100
AcDbEntity
  8
0
  6
Continuous
 62
     7
100
AcDbLine
 10
147.7223229999999
 20
-26.5
 30
0.0
 11
146.7223229999999
 21
-26.5
 31
0.0
  0
LINE
  5
643D
330
A
100
AcDbEntity
  8
0
  6
Continuous
 62
     7
100
AcDbLine
 10
146.7223229999999
 20
-22.43478300000028
 30
0.0
 11
146.7223229999999
 21
-26.5
 31
0.0
  0
LINE
  5
643E
330
A
100
AcDbEntity
  8
0
  6
Continuous
 62
     7
100
AcDbLine
 10
147.7223229999999
 20
26.5
 30
0.0
 11
146.7223229999999
 21
26.5
 31
0.0
  0
LINE
  5
643F
330
A
100
AcDbEntity
  8
0
  6
Continuous
 62
     7
100
AcDbLine
 10
146.7223229999999
 20
26.5
 30
0.0
 11
146.7223229999999
 21
22.43478300000004
 31
0.0
  0
LINE
  5
6440
330
A
100
AcDbEntity
  8
0
  6
Continuous
 62
     7
100
AcDbLine
 10
131.202323
 20
-27.5
 30
0.0
 11
136.7223229999999
 21
-27.5
 31
0.0
  0
ARC
  5
6441
330
A
100
AcDbEntity
  8
0
  6
Continuous
 62
     7
100
AcDbCircle
 10
167.0879239999999
 20
-9.830149000000004
 30
0.0
 40
40.0
100
AcDbArc
 50
190.295793999999
 51
206.2153539999993
  0
ARC
  5
6442
330
A
100
AcDbEntity
  8
0
  6
Continuous
 62
     7
100
AcDbCircle
 10
167.0879239999999
 20
9.830149000000004
 30
0.0
 40
40.0
100
AcDbArc
 50
153.7846460000007
 51
169.704206000001
  0
LINE
  5
6443
330
A
100
AcDbEntity
  8
0
  6
Continuous
 62
     7
100
AcDbLine
 10
136.7223229999999
 20
27.5
 30
0.0
 11
131.202323
 21
27.5
 31
0.0
  0
LINE
  5
6444
330
A
100
AcDbEntity
  8
0
  6
Continuous
 62
     7
100
AcDbLine
 10
136.7223229999999
 20
-27.5
 30
0.0
 11
136.7223229999999
 21
27.5
 31
0.0
  0
ARC
  5
6445
330
A
100
AcDbEntity
  8
0
  6
Continuous
 62
     7
100
AcDbCircle
 10
221.202323
 20
0.0
 30
0.0
 40
95.0
100
AcDbArc
 50
169.704206000001
 51
190.295793999999
  0
LINE
  5
6446
330
A
100
AcDbEntity
  8
0
  6
Continuous
 62
     7
100
AcDbLine
 10
150.471955
 20
-39.57905800000015
 30
0.0
 11
150.4954149999998
 21
-39.64999999999998
 31
0.0
  0
LINE
  5
644C
330
A
100
AcDbEntity
  8
0
  6
Continuous
 62
     7
100
AcDbLine
 10
151.4520870000001
 20
-35.64999999999998
 30
0.0
 11
151.4520870000001
 21
-28.10000000000025
 31
0.0
  0
LINE
  5
644D
330
A
100
AcDbEntity
  8
0
  6
Continuous
 62
     9
100
AcDbLine
 10
162.471955
 20
-28.10000000000025
 30
0.0
 11
162.471955
 21
-41.8090900000002
 31
0.0
  0
LINE
  5
644E
330
A
100
AcDbEntity
  8
0
  6
Continuous
 62
     7
100
AcDbLine
 10
150.471955
 20
-39.57905800000015
 30
0.0
 11
150.471955
 21
-41.23105599999997
 31
0.0
  0
ARC
  5
644F
330
A
100
AcDbEntity
  8
0
  6
Continuous
 62
     7
100
AcDbCircle
 10
158.4720119999999
 20
0.0011889999999539
 30
0.0
 40
42.001178
100
AcDbArc
 50
259.0196570000027
 51
275.464790999995
  0
LINE
  5
6450
330
A
100
AcDbEntity
  8
0
  6
Continuous
 62
     7
100
AcDbLine
 10
162.471955
 20
-28.10000000000025
 30
0.0
 11
151.4520870000001
 21
-28.10000000000025
 31
0.0
  0
LINE
  5
6451
330
A
100
AcDbEntity
  8
0
  6
Continuous
 62
     7
100
AcDbLine
 10
174.471955
 20
-28.10000000000025
 30
0.0
 11
174.471955
 21
-38.83297600000015
 31
0.0
  0
ARC
  5
6452
330
A
100
AcDbEntity
  8
0
  6
Continuous
 62
     7
100
AcDbCircle
 10
158.4717389999999
 20
0.0008699999997361
 30
0.0
 40
42.00088599999999
100
AcDbArc
 50
275.465204000002
 51
292.3925079999953
  0
LINE
  5
6453
330
A
100
AcDbEntity
  8
0
  6
Continuous
 62
     7
100
AcDbLine
 10
174.471955
 20
-28.10000000000025
 30
0.0
 11
162.471955
 21
-28.10000000000025
 31
0.0
  0
LINE
  5
6454
330
A
100
AcDbEntity
  8
0
  6
Continuous
 62
     7
100
AcDbLine
 10
151.4520870000001
 20
28.10000000000002
 30
0.0
 11
151.4520870000001
 21
35.64999999999987
 31
0.0
  0
LINE
  5
645A
330
A
100
AcDbEntity
  8
0
  6
Continuous
 62
     7
100
AcDbLine
 10
150.4954149999998
 20
39.64999999999987
 30
0.0
 11
150.471955
 21
39.57905800000003
 31
0.0
  0
LINE
  5
645B
330
A
100
AcDbEntity
  8
0
  6
Continuous
 62
     7
100
AcDbLine
 10
150.471955
 20
41.23105599999997
 30
0.0
 11
150.471955
 21
39.57905800000003
 31
0.0
  0
LINE
  5
645C
330
A
100
AcDbEntity
  8
0
  6
Continuous
 62
     9
100
AcDbLine
 10
162.471955
 20
41.8090900000002
 30
0.0
 11
162.471955
 21
28.10000000000002
 31
0.0
  0
LINE
  5
645D
330
A
100
AcDbEntity
  8
0
  6
Continuous
 62
     7
100
AcDbLine
 10
151.4520870000001
 20
28.10000000000002
 30
0.0
 11
162.471955
 21
28.10000000000002
 31
0.0
  0
ARC
  5
645E
330
A
100
AcDbEntity
  8
0
  6
Continuous
 62
     7
100
AcDbCircle
 10
158.4719909999999
 20
-0.0007480000002715
 30
0.0
 40
42.000741
100
AcDbArc
 50
84.53512200000295
 51
100.9804290000057
  0
LINE
  5
645F
330
A
100
AcDbEntity
  8
0
  6
Continuous
 62
     7
100
AcDbLine
 10
174.471955
 20
38.83297600000003
 30
0.0
 11
174.471955
 21
28.10000000000002
 31
0.0
  0
LINE
  5
6460
330
A
100
AcDbEntity
  8
0
  6
Continuous
 62
     7
100
AcDbLine
 10
162.471955
 20
28.10000000000002
 30
0.0
 11
174.471955
 21
28.10000000000002
 31
0.0
  0
ARC
  5
6461
330
A
100
AcDbEntity
  8
0
  6
Continuous
 62
     7
100
AcDbCircle
 10
158.471714
 20
-0.0009700000002795
 30
0.0
 40
42.000988
100
AcDbArc
 50
67.60751300000304
 51
84.53477599999921
  0
LINE
  5
6462
330
A
100
AcDbEntity
  8
0
  6
Continuous
 62
     7
100
AcDbLine
 10
150.471955
 20
-35.64999999999998
 30
0.0
 11
150.471955
 21
-39.57905800000015
 31
0.0
  0
LINE
  5
6463
330
A
100
AcDbEntity
  8
0
  6
Continuous
 62
     9
100
AcDbLine
 10
150.471955
 20
-35.64999999999998
 30
0.0
 11
151.4520870000001
 21
-35.64999999999998
 31
0.0
  0
LINE
  5
6464
330
A
100
AcDbEntity
  8
0
  6
Continuous
 62
     9
100
AcDbLine
 10
150.471955
 20
35.64999999999987
 30
0.0
 11
151.4520870000001
 21
35.64999999999987
 31
0.0
  0
LINE
  5
6465
330
A
100
AcDbEntity
  8
0
  6
Continuous
 62
     7
100
AcDbLine
 10
150.471955
 20
39.57905800000003
 30
0.0
 11
150.471955
 21
35.64999999999987
 31
0.0
  0
LINE
  5
6466
330
A
100
AcDbEntity
  8
0
  6
Continuous
 62
     7
100
AcDbLine
 10
150.471955
 20
-35.64999999999998
 30
0.0
 11
150.471955
 21
-28.10000000000025
 31
0.0
  0
LINE
  5
6467
330
A
100
AcDbEntity
  8
0
  6
Continuous
 62
     7
100
AcDbLine
 10
151.4520870000001
 20
-28.10000000000025
 30
0.0
 11
150.471955
 21
-28.10000000000025
 31
0.0
  0
LINE
  5
6468
330
A
100
AcDbEntity
  8
0
  6
Continuous
 62
     7
100
AcDbLine
 10
150.471955
 20
28.10000000000002
 30
0.0
 11
150.471955
 21
35.64999999999987
 31
0.0
  0
LINE
  5
6469
330
A
100
AcDbEntity
  8
0
  6
Continuous
 62
     7
100
AcDbLine
 10
150.471955
 20
28.10000000000002
 30
0.0
 11
151.4520870000001
 21
28.10000000000002
 31
0.0
  0
LINE
  5
646A
330
A
100
AcDbEntity
  8
0
  6
Continuous
 62
     7
100
AcDbLine
 10
174.471955
 20
-38.83297600000015
 30
0.0
 11
175.9719549999999
 21
-39.82461599999999
 31
0.0
  0
ARC
  5
646B
330
A
100
AcDbEntity
  8
0
  6
Continuous
 62
     9
100
AcDbCircle
 10
158.4719549999999
 20
0.0
 30
0.0
 40
43.5
100
AcDbArc
 50
257.3854649999953
 51
293.7219700000037
  0
LINE
  5
646C
330
A
100
AcDbEntity
  8
0
  6
Continuous
 62
     7
100
AcDbLine
 10
150.471955
 20
-41.23105599999997
 30
0.0
 11
148.971955
 21
-42.449971
 31
0.0
  0
LINE
  5
646D
330
A
100
AcDbEntity
  8
0
  6
Continuous
 62
     9
100
AcDbLine
 10
148.971955
 20
-42.449971
 30
0.0
 11
148.971955
 21
-27.5
 31
0.0
  0
LINE
  5
646E
330
A
100
AcDbEntity
  8
0
  6
Continuous
 62
     7
100
AcDbLine
 10
149.8719550000001
 20
-27.5
 30
0.0
 11
150.471955
 21
-28.10000000000025
 31
0.0
  0
ARC
  5
646F
330
A
100
AcDbEntity
  8
0
  6
Continuous
 62
     9
100
AcDbCircle
 10
158.4719549999999
 20
0.0
 30
0.0
 40
43.5
100
AcDbArc
 50
66.27802999999635
 51
102.6145350000047
  0
LINE
  5
6470
330
A
100
AcDbEntity
  8
0
  6
Continuous
 62
     7
100
AcDbLine
 10
175.9719549999999
 20
39.82461599999977
 30
0.0
 11
174.471955
 21
38.83297600000003
 31
0.0
  0
LINE
  5
6471
330
A
100
AcDbEntity
  8
0
  6
Continuous
 62
     7
100
AcDbLine
 10
148.971955
 20
42.449971
 30
0.0
 11
150.471955
 21
41.23105599999997
 31
0.0
  0
LINE
  5
6472
330
A
100
AcDbEntity
  8
0
  6
Continuous
 62
     7
100
AcDbLine
 10
150.471955
 20
28.10000000000002
 30
0.0
 11
149.8719550000001
 21
27.5
 31
0.0
  0
LINE
  5
6473
330
A
100
AcDbEntity
  8
0
  6
Continuous
 62
     9
100
AcDbLine
 10
148.971955
 20
27.5
 30
0.0
 11
148.971955
 21
42.449971
 31
0.0
  0
LINE
  5
6474
330
A
100
AcDbEntity
  8
0
  6
Continuous
 62
     7
100
AcDbLine
 10
174.471955
 20
-28.10000000000025
 30
0.0
 11
175.9719549999999
 21
-26.60000000000002
 31
0.0
  0
LINE
  5
6475
330
A
100
AcDbEntity
  8
0
  6
Continuous
 62
     9
100
AcDbLine
 10
175.9719549999999
 20
-26.60000000000002
 30
0.0
 11
175.9719549999999
 21
-39.82461599999999
 31
0.0
  0
LINE
  5
6476
330
A
100
AcDbEntity
  8
0
  6
Continuous
 62
     9
100
AcDbLine
 10
175.9719549999999
 20
39.82461599999977
 30
0.0
 11
175.9719549999999
 21
26.60000000000002
 31
0.0
  0
LINE
  5
6477
330
A
100
AcDbEntity
  8
0
  6
Continuous
 62
     7
100
AcDbLine
 10
175.9719549999999
 20
26.60000000000002
 30
0.0
 11
174.471955
 21
28.10000000000002
 31
0.0
  0
ARC
  5
6478
330
A
100
AcDbEntity
  8
0
  6
Continuous
 62
     7
100
AcDbCircle
 10
181.971955
 20
-23.10386700000004
 30
0.0
 40
6.0
100
AcDbArc
 50
125.6853350000035
 51
180.0
  0
LINE
  5
6479
330
A
100
AcDbEntity
  8
0
  6
Continuous
 62
     7
100
AcDbLine
 10
176.213432
 20
-18.10386700000014
 30
0.0
 11
178.471955
 21
-18.10386700000014
 31
0.0
  0
LINE
  5
647A
330
A
100
AcDbEntity
  8
0
  6
Continuous
 62
     7
100
AcDbLine
 10
178.471955
 20
-18.10386700000014
 30
0.0
 11
178.471955
 21
-18.23046999999997
 31
0.0
  0
LINE
  5
647B
330
A
100
AcDbEntity
  8
0
  6
Continuous
 62
     7
100
AcDbLine
 10
175.9719549999999
 20
-26.60000000000002
 30
0.0
 11
174.455605
 21
-26.60000000000002
 31
0.0
  0
LINE
  5
647C
330
A
100
AcDbEntity
  8
0
  6
Continuous
 62
     7
100
AcDbLine
 10
175.9719549999999
 20
-23.10386700000004
 30
0.0
 11
175.9719549999999
 21
-26.60000000000002
 31
0.0
  0
LINE
  5
647D
330
A
100
AcDbEntity
  8
0
  6
Continuous
 62
     7
100
AcDbLine
 10
175.9719549999999
 20
26.60000000000002
 30
0.0
 11
174.4555340000002
 21
26.60000000000002
 31
0.0
  0
ARC
  5
647E
330
A
100
AcDbEntity
  8
0
  6
Continuous
 62
     7
100
AcDbCircle
 10
181.971955
 20
23.10386700000004
 30
0.0
 40
6.0
100
AcDbArc
 50
180.0
 51
234.3146649999965
  0
LINE
  5
647F
330
A
100
AcDbEntity
  8
0
  6
Continuous
 62
     7
100
AcDbLine
 10
176.211361
 20
18.10386700000004
 30
0.0
 11
178.471955
 21
18.10386700000004
 31
0.0
  0
LINE
  5
6480
330
A
100
AcDbEntity
  8
0
  6
Continuous
 62
     7
100
AcDbLine
 10
175.9719549999999
 20
23.10386700000004
 30
0.0
 11
175.9719549999999
 21
26.60000000000002
 31
0.0
  0
LINE
  5
6481
330
A
100
AcDbEntity
  8
0
  6
Continuous
 62
     7
100
AcDbLine
 10
178.471955
 20
18.10386700000004
 30
0.0
 11
178.471955
 21
18.23046999999974
 31
0.0
  0
LINE
  5
6482
330
A
100
AcDbEntity
  8
0
  6
Continuous
 62
     7
100
AcDbLine
 10
136.471955
 20
-27.5
 30
0.0
 11
136.471955
 21
-50.83305999999993
 31
0.0
  0
LINE
  5
6483
330
A
100
AcDbEntity
  8
0
  6
Continuous
 62
     7
100
AcDbLine
 10
144.7223229999999
 20
-18.10386700000014
 30
0.0
 11
136.7223229999999
 21
-18.10386700000014
 31
0.0
  0
CIRCLE
  5
6484
330
A
100
AcDbEntity
  8
0
  6
Continuous
 62
     7
100
AcDbCircle
 10
171.9719549999999
 20
-47.0000000000001
 30
0.0
 40
5.2
  0
CIRCLE
  5
6485
330
A
100
AcDbEntity
  8
0
  6
Continuous
 62
     7
100
AcDbCircle
 10
142.9719549999999
 20
-47.0000000000001
 30
0.0
 40
5.2
  0
ARC
  5
6486
330
A
100
AcDbEntity
  8
0
  6
Continuous
 62
     7
100
AcDbCircle
 10
157.471955
 20
0.0
 30
0.0
 40
55.0
100
AcDbArc
 50
247.5536490000071
 51
292.4463509999929
  0
LINE
  5
6487
330
A
100
AcDbEntity
  8
0
  6
Continuous
 62
     7
100
AcDbLine
 10
178.471955
 20
-50.83305999999993
 30
0.0
 11
178.471955
 21
-18.23046999999997
 31
0.0
  0
LINE
  5
6488
330
A
100
AcDbEntity
  8
0
  6
Continuous
 62
     7
100
AcDbLine
 10
136.7223229999999
 20
18.10386700000004
 30
0.0
 11
144.7223229999999
 21
18.10386700000004
 31
0.0
  0
LINE
  5
6489
330
A
100
AcDbEntity
  8
0
  6
Continuous
 62
     7
100
AcDbLine
 10
178.471955
 20
18.10386700000004
 30
0.0
 11
178.471955
 21
-18.10386700000014
 31
0.0
  0
CIRCLE
  5
648A
330
A
100
AcDbEntity
  8
0
  6
Continuous
 62
     7
100
AcDbCircle
 10
142.9719549999999
 20
-47.0000000000001
 30
0.0
 40
2.5
  0
CIRCLE
  5
648B
330
A
100
AcDbEntity
  8
0
  6
Continuous
 62
     7
100
AcDbCircle
 10
142.9719549999999
 20
47.0
 30
0.0
 40
5.2
  0
CIRCLE
  5
648C
330
A
100
AcDbEntity
  8
0
  6
Continuous
 62
     7
100
AcDbCircle
 10
171.9719549999999
 20
47.0
 30
0.0
 40
5.2
  0
ARC
  5
648D
330
A
100
AcDbEntity
  8
0
  6
Continuous
 62
     7
100
AcDbCircle
 10
157.471955
 20
0.0
 30
0.0
 40
55.0
100
AcDbArc
 50
67.5536490000071
 51
112.4463509999929
  0
LINE
  5
648E
330
A
100
AcDbEntity
  8
0
  6
Continuous
 62
     7
100
AcDbLine
 10
136.471955
 20
50.83305999999982
 30
0.0
 11
136.471955
 21
27.5
 31
0.0
  0
LINE
  5
648F
330
A
100
AcDbEntity
  8
0
  6
Continuous
 62
     7
100
AcDbLine
 10
178.471955
 20
18.23046999999974
 30
0.0
 11
178.471955
 21
50.83305999999982
 31
0.0
  0
CIRCLE
  5
6490
330
A
100
AcDbEntity
  8
0
  6
Continuous
 62
     7
100
AcDbCircle
 10
171.9719549999999
 20
-47.0000000000001
 30
0.0
 40
2.5
  0
CIRCLE
  5
6491
330
A
100
AcDbEntity
  8
0
  6
Continuous
 62
     7
100
AcDbCircle
 10
171.9719549999999
 20
47.0
 30
0.0
 40
2.5
  0
CIRCLE
  5
6492
330
A
100
AcDbEntity
  8
0
  6
Continuous
 62
     7
100
AcDbCircle
 10
142.9719549999999
 20
47.0
 30
0.0
 40
2.5
  0
ARC
  5
6493
330
A
100
AcDbEntity
  8
0
  6
Continuous
 62
     7
100
AcDbCircle
 10
162.7223229999999
 20
0.0
 30
0.0
 40
13.0
100
AcDbArc
 50
89.9777789999997
 51
359.9777789999997
  0
ARC
  5
6494
330
A
100
AcDbEntity
  8
0
  6
Continuous
 62
     7
100
AcDbCircle
 10
162.7223229999999
 20
0.0
 30
0.0
 40
13.0
100
AcDbArc
 50
2.72706900000211
 51
89.9777789999997
  0
ARC
  5
6495
330
A
100
AcDbEntity
  8
0
  6
Continuous
 62
     7
100
AcDbCircle
 10
162.7223229999999
 20
0.0
 30
0.0
 40
13.0
100
AcDbArc
 50
359.9777789999997
 51
2.72706900000211
  0
CIRCLE
  5
6496
330
A
100
AcDbEntity
  8
0
  6
Continuous
 62
     9
100
AcDbCircle
 10
162.7223229999999
 20
0.0
 30
0.0
 40
12.7
  0
CIRCLE
  5
6497
330
A
100
AcDbEntity
  8
0
  6
Continuous
 62
     7
100
AcDbCircle
 10
173.222322
 20
-0.004071999999951
 30
0.0
 40
1.55
  0
CIRCLE
  5
6498
330
A
100
AcDbEntity
  8
0
  6
Continuous
 62
     7
100
AcDbCircle
 10
162.7182500000001
 20
-10.49999900000023
 30
0.0
 40
1.55
  0
CIRCLE
  5
6499
330
A
100
AcDbEntity
  8
0
  6
Continuous
 62
     7
100
AcDbCircle
 10
152.2223229999999
 20
0.0040719999997236
 30
0.0
 40
1.55
  0
CIRCLE
  5
649A
330
A
100
AcDbEntity
  8
0
  6
Continuous
 62
     7
100
AcDbCircle
 10
162.7263950000001
 20
10.49999899999989
 30
0.0
 40
1.55
  0
LINE
  5
649B
330
A
100
AcDbEntity
  8
0
  6
Continuous
 62
     7
100
AcDbLine
 10
170.122323
 20
28.0
 30
0.0
 11
155.3223229999998
 21
28.0
 31
0.0
  0
LINE
  5
649C
330
A
100
AcDbEntity
  8
0
  6
Continuous
 62
     7
100
AcDbLine
 10
155.3223229999998
 20
-28.0
 30
0.0
 11
169.5092440000001
 21
-28.0
 31
0.0
  0
LINE
  5
649D
330
A
100
AcDbEntity
  8
0
  6
Continuous
 62
     7
100
AcDbLine
 10
169.5092440000001
 20
-28.0
 30
0.0
 11
170.122323
 21
-28.0
 31
0.0
  0
LINE
  5
649E
330
A
100
AcDbEntity
  8
0
  6
Continuous
 62
     7
100
AcDbLine
 10
147.7223229999999
 20
27.5
 30
0.0
 11
147.7223229999999
 21
-27.5
 31
0.0
  0
LINE
  5
649F
330
A
100
AcDbEntity
  8
0
  6
Continuous
 62
     7
100
AcDbLine
 10
173.451931
 20
27.5
 30
0.0
 11
147.7223229999999
 21
27.5
 31
0.0
  0
ARC
  5
64C1
330
A
100
AcDbEntity
  8
0
  6
Continuous
 62
     7
100
AcDbCircle
 10
67.72232299999996
 20
0.0
 30
0.0
 40
110.0
100
AcDbArc
 50
345.9292849999977
 51
14.0707150000023
  0
LINE
  5
64E5
330
A
100
AcDbEntity
  8
0
  6
Continuous
 62
     7
100
AcDbLine
 10
147.7223229999999
 20
-27.5
 30
0.0
 11
173.451931
 21
-27.5
 31
0.0
  0
CIRCLE
  5
64E6
330
A
100
AcDbEntity
  8
0
  6
Continuous
 62
     7
100
AcDbCircle
 10
162.7223220000001
 20
0.011400999999978
 30
0.0
 40
13.500005
  0
LINE
  5
64E7
330
A
100
AcDbEntity
  8
0
  6
Continuous
 62
     7
100
AcDbLine
 10
175.7223229999999
 20
0.0
 30
0.0
 11
175.7076180000001
 21
0.6181410000000369
 31
0.0
  0
ARC
  5
64E8
330
A
100
AcDbEntity
  8
0
  6
Continuous
 62
     7
100
AcDbCircle
 10
162.7223229999999
 20
0.0
 30
0.0
 40
13.0
100
AcDbArc
 50
2.725402999998872
 51
89.97387300000594
  0
ARC
  5
64E9
330
A
100
AcDbEntity
  8
0
  6
Continuous
 62
     7
100
AcDbCircle
 10
162.7223229999999
 20
0.0
 30
0.0
 40
13.0
100
AcDbArc
 50
89.97387300000594
 51
0.0
  0
LINE
  5
64EA
330
A
100
AcDbEntity
  8
0
  6
Continuous
 62
     7
100
AcDbLine
 10
137.2223229999999
 20
7.899999999999977
 30
0.0
 11
137.2223229999999
 21
-7.899999999999977
 31
0.0
  0
LINE
  5
64EB
330
A
100
AcDbEntity
  8
0
  6
Continuous
 62
     7
100
AcDbLine
 10
155.0588
 20
10.5
 30
0.0
 11
154.9567710000001
 21
10.5
 31
0.0
  0
LINE
  5
64EC
330
A
100
AcDbEntity
  8
0
  6
Continuous
 62
     7
100
AcDbLine
 10
170.3871770000001
 20
-10.5
 30
0.0
 11
170.4739119999999
 21
-10.5
 31
0.0
  0
LINE
  5
64ED
330
A
100
AcDbEntity
  8
0
  6
Continuous
 62
     7
100
AcDbLine
 10
159.3219549999998
 20
-28.0
 30
0.0
 11
159.3219549999998
 21
-28.10000000000025
 31
0.0
  0
LINE
  5
64EE
330
A
100
AcDbEntity
  8
0
  6
Continuous
 62
     7
100
AcDbLine
 10
166.1226899999999
 20
-28.0
 30
0.0
 11
166.1226899999999
 21
-28.10000000000025
 31
0.0
  0
LINE
  5
64EF
330
A
100
AcDbEntity
  8
0
  6
Continuous
 62
     7
100
AcDbLine
 10
159.3219549999998
 20
28.0
 30
0.0
 11
159.3219549999998
 21
28.10000000000002
 31
0.0
  0
LINE
  5
64F0
330
A
100
AcDbEntity
  8
0
  6
Continuous
 62
     7
100
AcDbLine
 10
166.1226899999999
 20
28.0
 30
0.0
 11
166.1226899999999
 21
28.10000000000002
 31
0.0
  0
LINE
  5
64F1
330
A
100
AcDbEntity
  8
0
  6
Continuous
 62
     9
100
AcDbLine
 10
137.2223229999999
 20
2.5
 30
0.0
 11
137.122323
 21
2.5
 31
0.0
  0
LINE
  5
64F2
330
A
100
AcDbEntity
  8
0
  6
Continuous
 62
     9
100
AcDbLine
 10
137.122323
 20
-2.5
 30
0.0
 11
137.2223229999999
 21
-2.5
 31
0.0
  0
LINE
  5
64F3
330
A
100
AcDbEntity
  8
0
  6
Continuous
 62
     7
100
AcDbLine
 10
137.7223229999999
 20
-9.5
 30
0.0
 11
144.7223229999999
 21
-9.5
 31
0.0
  0
LINE
  5
64F4
330
A
100
AcDbEntity
  8
0
  6
Continuous
 62
     7
100
AcDbLine
 10
144.7223229999999
 20
9.5
 30
0.0
 11
137.7223229999999
 21
9.5
 31
0.0
  0
LINE
  5
64F5
330
A
100
AcDbEntity
  8
0
  6
Continuous
 62
     7
100
AcDbLine
 10
137.2223079999999
 20
3.0
 30
0.0
 11
137.122323
 21
3.0
 31
0.0
  0
LINE
  5
64F6
330
A
100
AcDbEntity
  8
0
  6
Continuous
 62
     7
100
AcDbLine
 10
137.122323
 20
3.0
 30
0.0
 11
137.1173229999999
 21
3.0
 31
0.0
  0
LINE
  5
64F7
330
A
100
AcDbEntity
  8
0
  6
Continuous
 62
     7
100
AcDbLine
 10
137.1173229999999
 20
-3.0
 30
0.0
 11
137.122323
 21
-3.0
 31
0.0
  0
LINE
  5
64F8
330
A
100
AcDbEntity
  8
0
  6
Continuous
 62
     7
100
AcDbLine
 10
137.122323
 20
-3.0
 30
0.0
 11
137.2223079999999
 21
-3.0
 31
0.0
  0
LINE
  5
64F9
330
A
100
AcDbEntity
  8
0
  6
Continuous
 62
     7
100
AcDbLine
 10
137.1273229999999
 20
3.0
 30
0.0
 11
137.122323
 21
3.0
 31
0.0
  0
LINE
  5
64FA
330
A
100
AcDbEntity
  8
0
  6
Continuous
 62
     7
100
AcDbLine
 10
137.122323
 20
3.0
 30
0.0
 11
136.7223229999999
 21
3.0
 31
0.0
  0
LINE
  5
64FB
330
A
100
AcDbEntity
  8
0
  6
Continuous
 62
     7
100
AcDbLine
 10
136.7223229999999
 20
-3.0
 30
0.0
 11
137.122323
 21
-3.0
 31
0.0
  0
LINE
  5
64FC
330
A
100
AcDbEntity
  8
0
  6
Continuous
 62
     7
100
AcDbLine
 10
137.122323
 20
-3.0
 30
0.0
 11
137.1273229999999
 21
-3.0
 31
0.0
  0
LINE
  5
64FD
330
A
100
AcDbEntity
  8
0
  6
Continuous
 62
     7
100
AcDbLine
 10
171.496061
 20
27.5
 30
0.0
 11
170.122323
 21
28.0
 31
0.0
  0
LINE
  5
64FE
330
A
100
AcDbEntity
  8
0
  6
Continuous
 62
     7
100
AcDbLine
 10
155.3223229999998
 20
28.0
 30
0.0
 11
153.948584
 21
27.5
 31
0.0
  0
LINE
  5
64FF
330
A
100
AcDbEntity
  8
0
  6
Continuous
 62
     7
100
AcDbLine
 10
153.948584
 20
-27.5
 30
0.0
 11
155.3223229999998
 21
-28.0
 31
0.0
  0
LINE
  5
6500
330
A
100
AcDbEntity
  8
0
  6
Continuous
 62
     7
100
AcDbLine
 10
170.122323
 20
-28.0
 30
0.0
 11
171.496061
 21
-27.5
 31
0.0
  0
LINE
  5
6501
330
A
100
AcDbEntity
  8
0
  6
Continuous
 62
     7
100
AcDbLine
 10
137.2223229999999
 20
-7.899999999999977
 30
0.0
 11
137.7223229999999
 21
-7.899999999999977
 31
0.0
  0
LINE
  5
6502
330
A
100
AcDbEntity
  8
0
  6
Continuous
 62
     7
100
AcDbLine
 10
137.7223229999999
 20
7.899999999999977
 30
0.0
 11
137.2223229999999
 21
7.899999999999977
 31
0.0
  0
LINE
  5
6503
330
A
100
AcDbEntity
  8
0
  6
Continuous
 62
     7
100
AcDbLine
 10
157.4723229999999
 20
-28.0
 30
0.0
 11
157.4723229999999
 21
-28.10000000000025
 31
0.0
  0
LINE
  5
6504
330
A
100
AcDbEntity
  8
0
  6
Continuous
 62
     7
100
AcDbLine
 10
167.9723229999999
 20
-28.10000000000025
 30
0.0
 11
167.9723229999999
 21
-28.0
 31
0.0
  0
LINE
  5
6505
330
A
100
AcDbEntity
  8
0
  6
Continuous
 62
     7
100
AcDbLine
 10
157.4723229999999
 20
28.10000000000002
 30
0.0
 11
157.4723229999999
 21
28.0
 31
0.0
  0
LINE
  5
6506
330
A
100
AcDbEntity
  8
0
  6
Continuous
 62
     7
100
AcDbLine
 10
167.9723229999999
 20
28.0
 30
0.0
 11
167.9723229999999
 21
28.10000000000002
 31
0.0
  0
LINE
  5
6507
330
A
100
AcDbEntity
  8
0
  6
Continuous
 62
     7
100
AcDbLine
 10
2.750005000000101
 20
-96.74494400000003
 30
0.0
 11
-3.250004999999873
 21
-96.74494400000003
 31
0.0
  0
LINE
  5
6508
330
A
100
AcDbEntity
  8
0
  6
Continuous
 62
     7
100
AcDbLine
 10
47.7500050000001
 20
-96.74494400000003
 30
0.0
 11
41.74999500000011
 21
-96.74494400000003
 31
0.0
  0
LINE
  5
6509
330
A
100
AcDbEntity
  8
0
  6
Continuous
 62
     9
100
AcDbLine
 10
47.25
 20
-96.74494400000003
 30
0.0
 11
42.25
 21
-96.74494400000003
 31
0.0
  0
LINE
  5
650A
330
A
100
AcDbEntity
  8
0
  6
Continuous
 62
     7
100
AcDbLine
 10
9.25
 20
-97.34494400000016
 30
0.0
 11
-9.75
 21
-97.34494400000016
 31
0.0
  0
LINE
  5
650B
330
A
100
AcDbEntity
  8
0
  6
Continuous
 62
     7
100
AcDbLine
 10
54.25
 20
-97.34494400000016
 30
0.0
 11
35.25
 21
-97.34494400000016
 31
0.0
  0
LINE
  5
650C
330
A
100
AcDbEntity
  8
0
  6
Continuous
 62
     9
100
AcDbLine
 10
73.25
 20
-106.3449440000001
 30
0.0
 11
73.25
 21
-104.3449440000001
 31
0.0
  0
LINE
  5
650D
330
A
100
AcDbEntity
  8
0
  6
Continuous
 62
     7
100
AcDbLine
 10
73.25
 20
-106.3449440000001
 30
0.0
 11
-18.72234200000002
 21
-106.3449440000001
 31
0.0
  0
LINE
  5
650E
330
A
100
AcDbEntity
  8
0
  6
Continuous
 62
     9
100
AcDbLine
 10
-18.72234200000002
 20
-106.3449440000001
 30
0.0
 11
-18.72234200000002
 21
-104.3449440000001
 31
0.0
  0
LINE
  5
650F
330
A
100
AcDbEntity
  8
0
  6
Continuous
 62
     7
100
AcDbLine
 10
73.25
 20
-104.3449440000001
 30
0.0
 11
-18.72234200000002
 21
-104.3449440000001
 31
0.0
  0
LINE
  5
6510
330
A
100
AcDbEntity
  8
0
  6
Continuous
 62
     7
100
AcDbLine
 10
-18.72234200000002
 20
-106.3449440000001
 30
0.0
 11
-23.63418299999989
 21
-106.3449440000001
 31
0.0
  0
LINE
  5
6511
330
A
100
AcDbEntity
  8
0
  6
Continuous
 62
     9
100
AcDbLine
 10
-23.63418299999989
 20
-106.3449440000001
 30
0.0
 11
-23.63418299999989
 21
-104.3449440000001
 31
0.0
  0
LINE
  5
6512
330
A
100
AcDbEntity
  8
0
  6
Continuous
 62
     7
100
AcDbLine
 10
-18.72234200000002
 20
-104.3449440000001
 30
0.0
 11
-23.63418299999989
 21
-104.3449440000001
 31
0.0
  0
LINE
  5
6513
330
A
100
AcDbEntity
  8
0
  6
Continuous
 62
     7
100
AcDbLine
 10
78.25
 20
-106.3449440000001
 30
0.0
 11
78.25
 21
-104.3449440000001
 31
0.0
  0
LINE
  5
6514
330
A
100
AcDbEntity
  8
0
  6
Continuous
 62
     7
100
AcDbLine
 10
78.25
 20
-106.3449440000001
 30
0.0
 11
73.25
 21
-106.3449440000001
 31
0.0
  0
LINE
  5
6515
330
A
100
AcDbEntity
  8
0
  6
Continuous
 62
     7
100
AcDbLine
 10
78.25
 20
-104.3449440000001
 30
0.0
 11
73.25
 21
-104.3449440000001
 31
0.0
  0
LINE
  5
6516
330
A
100
AcDbEntity
  8
0
  6
Continuous
 62
     7
100
AcDbLine
 10
-25.75
 20
-106.3449440000001
 30
0.0
 11
-25.75
 21
-104.3449440000001
 31
0.0
  0
LINE
  5
6517
330
A
100
AcDbEntity
  8
0
  6
Continuous
 62
     7
100
AcDbLine
 10
-23.63418299999989
 20
-106.3449440000001
 30
0.0
 11
-25.75
 21
-106.3449440000001
 31
0.0
  0
LINE
  5
6518
330
A
100
AcDbEntity
  8
0
  6
Continuous
 62
     7
100
AcDbLine
 10
-23.63418299999989
 20
-104.3449440000001
 30
0.0
 11
-25.75
 21
-104.3449440000001
 31
0.0
  0
LINE
  5
6519
330
A
100
AcDbEntity
  8
0
  6
Continuous
 62
     9
100
AcDbLine
 10
-18.72234200000002
 20
-107.3449440000001
 30
0.0
 11
-18.72234200000002
 21
-106.3449440000001
 31
0.0
  0
LINE
  5
651A
330
A
100
AcDbEntity
  8
0
  6
Continuous
 62
     9
100
AcDbLine
 10
-23.63418299999989
 20
-107.3449440000001
 30
0.0
 11
-23.63418299999989
 21
-106.3449440000001
 31
0.0
  0
LINE
  5
651B
330
A
100
AcDbEntity
  8
0
  6
Continuous
 62
     7
100
AcDbLine
 10
-18.72234200000002
 20
-106.3449440000001
 30
0.0
 11
-23.63418299999989
 21
-106.3449440000001
 31
0.0
  0
LINE
  5
651C
330
A
100
AcDbEntity
  8
0
  6
Continuous
 62
     9
100
AcDbLine
 10
73.25
 20
-107.3449440000001
 30
0.0
 11
73.25
 21
-106.3449440000001
 31
0.0
  0
LINE
  5
651D
330
A
100
AcDbEntity
  8
0
  6
Continuous
 62
     7
100
AcDbLine
 10
73.25
 20
-106.3449440000001
 30
0.0
 11
-18.72234200000002
 21
-106.3449440000001
 31
0.0
  0
LINE
  5
651E
330
A
100
AcDbEntity
  8
0
  6
Continuous
 62
     7
100
AcDbLine
 10
78.25
 20
-107.3449440000001
 30
0.0
 11
78.25
 21
-106.3449440000001
 31
0.0
  0
LINE
  5
651F
330
A
100
AcDbEntity
  8
0
  6
Continuous
 62
     7
100
AcDbLine
 10
78.25
 20
-106.3449440000001
 30
0.0
 11
73.25
 21
-106.3449440000001
 31
0.0
  0
LINE
  5
6520
330
A
100
AcDbEntity
  8
0
  6
Continuous
 62
     7
100
AcDbLine
 10
-25.75
 20
-107.3449440000001
 30
0.0
 11
-25.75
 21
-106.3449440000001
 31
0.0
  0
LINE
  5
6521
330
A
100
AcDbEntity
  8
0
  6
Continuous
 62
     7
100
AcDbLine
 10
-23.63418299999989
 20
-106.3449440000001
 30
0.0
 11
-25.75
 21
-106.3449440000001
 31
0.0
  0
LINE
  5
6522
330
A
100
AcDbEntity
  8
0
  6
Continuous
 62
     7
100
AcDbLine
 10
-26.25
 20
-85.82494400000042
 30
0.0
 11
-25.04268400000001
 21
-87.35461799999995
 31
0.0
  0
LINE
  5
6523
330
A
100
AcDbEntity
  8
0
  6
Continuous
 62
     7
100
AcDbLine
 10
-26.25
 20
-96.34494400000015
 30
0.0
 11
-23.056464
 21
-96.34494400000015
 31
0.0
  0
ARC
  5
6524
330
A
100
AcDbEntity
  8
0
  6
Continuous
 62
     7
100
AcDbCircle
 10
-41.40843799999992
 20
-99.02502300000016
 30
0.0
 40
20.100653
100
AcDbArc
 50
24.07617799999631
 51
35.49263400000354
  0
LINE
  5
6525
330
A
100
AcDbEntity
  8
0
  6
Continuous
 62
     7
100
AcDbLine
 10
-23.056464
 20
-96.34494400000015
 30
0.0
 11
-23.056464
 21
-90.82494400000014
 31
0.0
  0
LINE
  5
6526
330
A
100
AcDbEntity
  8
0
  6
Continuous
 62
     7
100
AcDbLine
 10
-23.056464
 20
-90.82494400000014
 30
0.0
 11
62.75
 21
-90.82494400000014
 31
0.0
  0
LINE
  5
6527
330
A
100
AcDbEntity
  8
0
  6
Continuous
 62
     7
100
AcDbLine
 10
62.75
 20
-90.82494400000014
 30
0.0
 11
62.75
 21
-96.34494400000015
 31
0.0
  0
LINE
  5
6528
330
A
100
AcDbEntity
  8
0
  6
Continuous
 62
     7
100
AcDbLine
 10
-23.056464
 20
-96.34494400000015
 30
0.0
 11
62.75
 21
-96.34494400000015
 31
0.0
  0
LINE
  5
6529
330
A
100
AcDbEntity
  8
0
  6
Continuous
 62
     7
100
AcDbLine
 10
62.75
 20
-90.82494400000014
 30
0.0
 11
62.75
 21
-87.35461799999995
 31
0.0
  0
LINE
  5
652A
330
A
100
AcDbEntity
  8
0
  6
Continuous
 62
     9
100
AcDbLine
 10
-25.04268400000001
 20
-87.35461799999995
 30
0.0
 11
62.75
 21
-87.35461799999995
 31
0.0
  0
LINE
  5
652B
330
A
100
AcDbEntity
  8
0
  6
Continuous
 62
     7
100
AcDbLine
 10
62.75
 20
-87.35461799999995
 30
0.0
 11
62.75
 21
-85.82494400000042
 31
0.0
  0
LINE
  5
652C
330
A
100
AcDbEntity
  8
0
  6
Continuous
 62
     7
100
AcDbLine
 10
81.0
 20
-138.0945759999999
 30
0.0
 11
81.0
 21
-96.09457599999997
 31
0.0
  0
LINE
  5
652D
330
A
100
AcDbEntity
  8
0
  6
Continuous
 62
     7
100
AcDbLine
 10
81.0
 20
-96.09457599999997
 30
0.0
 11
86.0
 21
-96.09457599999997
 31
0.0
  0
LINE
  5
652E
330
A
100
AcDbEntity
  8
0
  6
Continuous
 62
     7
100
AcDbLine
 10
86.0
 20
-96.09457599999997
 30
0.0
 11
86.0
 21
-138.0945759999999
 31
0.0
  0
LINE
  5
652F
330
A
100
AcDbEntity
  8
0
  6
Continuous
 62
     7
100
AcDbLine
 10
86.0
 20
-138.0945759999999
 30
0.0
 11
81.0
 21
-138.0945759999999
 31
0.0
  0
ARC
  5
6530
330
A
100
AcDbEntity
  8
0
  6
Continuous
 62
     7
100
AcDbCircle
 10
79.5
 20
-135.5945759999999
 30
0.0
 40
1.5
100
AcDbArc
 50
0.0
 51
90.0
  0
LINE
  5
6531
330
A
100
AcDbEntity
  8
0
  6
Continuous
 62
     9
100
AcDbLine
 10
79.5
 20
-134.0945759999999
 30
0.0
 11
79.5
 21
-110.0945759999999
 31
0.0
  0
ARC
  5
6532
330
A
100
AcDbEntity
  8
0
  6
Continuous
 62
     7
100
AcDbCircle
 10
79.5
 20
-108.5945759999999
 30
0.0
 40
1.5
100
AcDbArc
 50
270.0
 51
0.0
  0
ARC
  5
6533
330
A
100
AcDbEntity
  8
0
  6
Continuous
 62
     7
100
AcDbCircle
 10
68.00007000000005
 20
-122.0945049999999
 30
0.0
 40
12.000071
100
AcDbArc
 50
180.0003369999974
 51
269.9996630000025
  0
ARC
  5
6534
330
A
100
AcDbEntity
  8
0
  6
Continuous
 62
     7
100
AcDbCircle
 10
68.00008600000001
 20
-122.094662
 30
0.0
 40
12.000086
100
AcDbArc
 50
90.00041200000499
 51
179.9995880000015
  0
LINE
  5
6535
330
A
100
AcDbEntity
  8
0
  6
Continuous
 62
     7
100
AcDbLine
 10
68.0
 20
-110.0945759999999
 30
0.0
 11
79.5
 21
-110.0945759999999
 31
0.0
  0
LINE
  5
6536
330
A
100
AcDbEntity
  8
0
  6
Continuous
 62
     7
100
AcDbLine
 10
79.5
 20
-134.0945759999999
 30
0.0
 11
68.0
 21
-134.0945759999999
 31
0.0
  0
LINE
  5
6537
330
A
100
AcDbEntity
  8
0
  6
Continuous
 62
     7
100
AcDbLine
 10
81.0
 20
-108.5945759999999
 30
0.0
 11
80.80000000000017
 21
-108.5945759999999
 31
0.0
  0
LINE
  5
6538
330
A
100
AcDbEntity
  8
0
  6
Continuous
 62
     7
100
AcDbLine
 10
81.0
 20
-135.5945759999999
 30
0.0
 11
80.80000000000017
 21
-135.5945759999999
 31
0.0
  0
LINE
  5
6539
330
A
100
AcDbEntity
  8
0
  6
Continuous
 62
     7
100
AcDbLine
 10
80.80000000000017
 20
-135.5945759999999
 30
0.0
 11
80.80000000000017
 21
-134.846824
 31
0.0
  0
LINE
  5
653A
330
A
100
AcDbEntity
  8
0
  6
Continuous
 62
     7
100
AcDbLine
 10
80.80000000000017
 20
-109.3420139999999
 30
0.0
 11
80.80000000000017
 21
-108.5945759999999
 31
0.0
  0
LINE
  5
653B
330
A
100
AcDbEntity
  8
0
  6
Continuous
 62
     7
100
AcDbLine
 10
80.80000000000017
 20
-135.5945759999999
 30
0.0
 11
80.80000000000017
 21
-138.0945759999999
 31
0.0
  0
LINE
  5
653C
330
A
100
AcDbEntity
  8
0
  6
Continuous
 62
     7
100
AcDbLine
 10
81.0
 20
-138.0945759999999
 30
0.0
 11
80.80000000000017
 21
-138.0945759999999
 31
0.0
  0
LINE
  5
653D
330
A
100
AcDbEntity
  8
0
  6
Continuous
 62
     9
100
AcDbLine
 10
-25.94999999999982
 20
-111.8112139999999
 30
0.0
 11
-25.94999999999982
 21
-122.3499849999999
 31
0.0
  0
LINE
  5
653E
330
A
100
AcDbEntity
  8
0
  6
Continuous
 62
     7
100
AcDbLine
 10
-26.25
 20
-135.044944
 30
0.0
 11
-26.25
 21
-122.3498690000001
 31
0.0
  0
LINE
  5
653F
330
A
100
AcDbEntity
  8
0
  6
Continuous
 62
     9
100
AcDbLine
 10
-25.94999999999982
 20
-122.3499849999999
 30
0.0
 11
-25.94999999999982
 21
-132.8785190000001
 31
0.0
  0
LINE
  5
6540
330
A
100
AcDbEntity
  8
0
  6
Continuous
 62
     7
100
AcDbLine
 10
-26.25
 20
-122.3498690000001
 30
0.0
 11
-26.25
 21
-109.6449440000004
 31
0.0
  0
LINE
  5
6546
330
A
100
AcDbEntity
  8
0
  6
Continuous
 62
     9
100
AcDbLine
 10
-23.056464
 20
-133.074552
 30
0.0
 11
63.16398700000013
 21
-133.074552
 31
0.0
  0
LINE
  5
6547
330
A
100
AcDbEntity
  8
0
  6
Continuous
 62
     9
100
AcDbLine
 10
66.92617700000005
 20
-134.0445480000001
 30
0.0
 11
-23.23207400000001
 21
-134.0445480000001
 31
0.0
  0
LINE
  5
6548
330
A
100
AcDbEntity
  8
0
  6
Continuous
 62
     7
100
AcDbLine
 10
-26.25
 20
-137.3449440000001
 30
0.0
 11
-23.23207400000001
 21
-134.0445480000001
 31
0.0
  0
ARC
  5
6549
330
A
100
AcDbEntity
  8
0
  6
Continuous
 62
     7
100
AcDbCircle
 10
-144.4778799999999
 20
-122.3449440000001
 30
0.0
 40
118.99614
100
AcDbArc
 50
353.4858230000019
 51
6.514176999998098
  0
LINE
  5
654A
330
A
100
AcDbEntity
  8
0
  6
Continuous
 62
     7
100
AcDbLine
 10
-23.056464
 20
-107.3449440000001
 30
0.0
 11
-26.25
 21
-107.3449440000001
 31
0.0
  0
LINE
  5
654B
330
A
100
AcDbEntity
  8
0
  6
Continuous
 62
     7
100
AcDbLine
 10
-23.056464
 20
-133.074552
 30
0.0
 11
-23.056464
 21
-107.3449440000001
 31
0.0
  0
LINE
  5
654C
330
A
100
AcDbEntity
  8
0
  6
Continuous
 62
     7
100
AcDbLine
 10
78.75
 20
-107.3449440000001
 30
0.0
 11
-23.056464
 21
-107.3449440000001
 31
0.0
  0
LINE
  5
654D
330
A
100
AcDbEntity
  8
0
  6
Continuous
 62
     7
100
AcDbLine
 10
78.75
 20
-110.0945759999999
 30
0.0
 11
78.75
 21
-107.3449440000001
 31
0.0
  0
LINE
  5
654E
330
A
100
AcDbEntity
  8
0
  6
Continuous
 62
     7
100
AcDbLine
 10
62.56419099999993
 20
-137.3449440000001
 30
0.0
 11
62.878191
 21
-137.333978
 31
0.0
  0
ARC
  5
654F
330
A
100
AcDbEntity
  8
0
  6
Continuous
 62
     7
100
AcDbCircle
 10
62.25
 20
-119.3449440000001
 30
0.0
 40
18.0
100
AcDbArc
 50
272.0000000000037
 51
304.9560260000037
  0
LINE
  5
6550
330
A
100
AcDbEntity
  8
0
  6
Continuous
 62
     7
100
AcDbLine
 10
7.650000000000089
 20
-96.84494400000028
 30
0.0
 11
-8.149999999999861
 21
-96.84494400000028
 31
0.0
  0
LINE
  5
6551
330
A
100
AcDbEntity
  8
0
  6
Continuous
 62
     7
100
AcDbLine
 10
52.6500000000001
 20
-96.84494400000028
 30
0.0
 11
36.85000000000014
 21
-96.84494400000028
 31
0.0
  0
LINE
  5
6552
330
A
100
AcDbEntity
  8
0
  6
Continuous
 62
     9
100
AcDbLine
 10
2.25
 20
-96.84494400000028
 30
0.0
 11
2.25
 21
-96.74494400000003
 31
0.0
  0
LINE
  5
6553
330
A
100
AcDbEntity
  8
0
  6
Continuous
 62
     9
100
AcDbLine
 10
-2.75
 20
-96.74494400000003
 30
0.0
 11
-2.75
 21
-96.84494400000028
 31
0.0
  0
LINE
  5
6554
330
A
100
AcDbEntity
  8
0
  6
Continuous
 62
     9
100
AcDbLine
 10
47.25
 20
-96.84494400000028
 30
0.0
 11
47.25
 21
-96.74494400000003
 31
0.0
  0
LINE
  5
6555
330
A
100
AcDbEntity
  8
0
  6
Continuous
 62
     9
100
AcDbLine
 10
42.25
 20
-96.74494400000003
 30
0.0
 11
42.25
 21
-96.84494400000028
 31
0.0
  0
LINE
  5
6556
330
A
100
AcDbEntity
  8
0
  6
Continuous
 62
     7
100
AcDbLine
 10
-9.75
 20
-97.34494400000016
 30
0.0
 11
-9.75
 21
-104.3449440000001
 31
0.0
  0
LINE
  5
6557
330
A
100
AcDbEntity
  8
0
  6
Continuous
 62
     7
100
AcDbLine
 10
9.25
 20
-104.3449440000001
 30
0.0
 11
9.25
 21
-97.34494400000016
 31
0.0
  0
LINE
  5
6558
330
A
100
AcDbEntity
  8
0
  6
Continuous
 62
     7
100
AcDbLine
 10
35.25
 20
-97.34494400000016
 30
0.0
 11
35.25
 21
-104.3449440000001
 31
0.0
  0
LINE
  5
6559
330
A
100
AcDbEntity
  8
0
  6
Continuous
 62
     7
100
AcDbLine
 10
54.25
 20
-104.3449440000001
 30
0.0
 11
54.25
 21
-97.34494400000016
 31
0.0
  0
LINE
  5
655A
330
A
100
AcDbEntity
  8
0
  6
Continuous
 62
     7
100
AcDbLine
 10
-26.25
 20
-85.82494400000042
 30
0.0
 11
-26.25
 21
-96.34494400000015
 31
0.0
  0
LINE
  5
655B
330
A
100
AcDbEntity
  8
0
  6
Continuous
 62
     7
100
AcDbLine
 10
62.75
 20
-85.82494400000042
 30
0.0
 11
-26.25
 21
-85.82494400000042
 31
0.0
  0
LINE
  5
655C
330
A
100
AcDbEntity
  8
0
  6
Continuous
 62
     7
100
AcDbLine
 10
2.75
 20
-96.74994400000002
 30
0.0
 11
2.75
 21
-96.74494400000003
 31
0.0
  0
LINE
  5
655D
330
A
100
AcDbEntity
  8
0
  6
Continuous
 62
     7
100
AcDbLine
 10
2.75
 20
-96.74494400000003
 30
0.0
 11
2.75
 21
-96.34494400000015
 31
0.0
  0
LINE
  5
655E
330
A
100
AcDbEntity
  8
0
  6
Continuous
 62
     7
100
AcDbLine
 10
-3.25
 20
-96.34494400000015
 30
0.0
 11
-3.25
 21
-96.74494400000003
 31
0.0
  0
LINE
  5
655F
330
A
100
AcDbEntity
  8
0
  6
Continuous
 62
     7
100
AcDbLine
 10
-3.25
 20
-96.74494400000003
 30
0.0
 11
-3.25
 21
-96.74994400000002
 31
0.0
  0
LINE
  5
6560
330
A
100
AcDbEntity
  8
0
  6
Continuous
 62
     7
100
AcDbLine
 10
2.75
 20
-96.84492899999998
 30
0.0
 11
2.75
 21
-96.74494400000003
 31
0.0
  0
LINE
  5
6561
330
A
100
AcDbEntity
  8
0
  6
Continuous
 62
     7
100
AcDbLine
 10
2.75
 20
-96.74494400000003
 30
0.0
 11
2.75
 21
-96.73994400000015
 31
0.0
  0
LINE
  5
6562
330
A
100
AcDbEntity
  8
0
  6
Continuous
 62
     7
100
AcDbLine
 10
-3.25
 20
-96.73994400000015
 30
0.0
 11
-3.25
 21
-96.74494400000003
 31
0.0
  0
LINE
  5
6563
330
A
100
AcDbEntity
  8
0
  6
Continuous
 62
     7
100
AcDbLine
 10
-3.25
 20
-96.74494400000003
 30
0.0
 11
-3.25
 21
-96.84492899999998
 31
0.0
  0
LINE
  5
6564
330
A
100
AcDbEntity
  8
0
  6
Continuous
 62
     7
100
AcDbLine
 10
47.75
 20
-96.74994400000002
 30
0.0
 11
47.75
 21
-96.74494400000003
 31
0.0
  0
LINE
  5
6565
330
A
100
AcDbEntity
  8
0
  6
Continuous
 62
     7
100
AcDbLine
 10
47.75
 20
-96.74494400000003
 30
0.0
 11
47.75
 21
-96.34494400000015
 31
0.0
  0
LINE
  5
6566
330
A
100
AcDbEntity
  8
0
  6
Continuous
 62
     7
100
AcDbLine
 10
41.74999999999999
 20
-96.34494400000015
 30
0.0
 11
41.74999999999999
 21
-96.74994400000002
 31
0.0
  0
LINE
  5
6567
330
A
100
AcDbEntity
  8
0
  6
Continuous
 62
     7
100
AcDbLine
 10
47.75
 20
-96.84492899999998
 30
0.0
 11
47.75
 21
-96.74494400000003
 31
0.0
  0
LINE
  5
6568
330
A
100
AcDbEntity
  8
0
  6
Continuous
 62
     7
100
AcDbLine
 10
47.75
 20
-96.74494400000003
 30
0.0
 11
47.75
 21
-96.73994400000015
 31
0.0
  0
LINE
  5
6569
330
A
100
AcDbEntity
  8
0
  6
Continuous
 62
     7
100
AcDbLine
 10
41.74999999999999
 20
-96.73994400000015
 30
0.0
 11
41.74999999999999
 21
-96.84492899999998
 31
0.0
  0
ARC
  5
656A
330
A
100
AcDbEntity
  8
0
  6
Continuous
 62
     7
100
AcDbCircle
 10
-25.94999999999982
 20
-109.6449440000004
 30
0.0
 40
0.3
100
AcDbArc
 50
140.7039610000057
 51
180.0
  0
ARC
  5
656B
330
A
100
AcDbEntity
  8
0
  6
Continuous
 62
     7
100
AcDbCircle
 10
-25.94999999999982
 20
-135.044944
 30
0.0
 40
0.3
100
AcDbArc
 50
180.0
 51
219.2656109999988
  0
LINE
  5
656C
330
A
100
AcDbEntity
  8
0
  6
Continuous
 62
     7
100
AcDbLine
 10
-26.25
 20
-135.8449440000002
 30
0.0
 11
-26.25
 21
-137.3449440000001
 31
0.0
  0
LINE
  5
656D
330
A
100
AcDbEntity
  8
0
  6
Continuous
 62
     7
100
AcDbLine
 10
-26.25
 20
-107.3449440000001
 30
0.0
 11
-26.25
 21
-108.84495
 31
0.0
  0
LINE
  5
656E
330
A
100
AcDbEntity
  8
0
  6
Continuous
 62
     7
100
AcDbLine
 10
-26.25
 20
-137.3449440000001
 30
0.0
 11
62.56419099999993
 21
-137.3449440000001
 31
0.0
  0
LINE
  5
656F
330
A
100
AcDbEntity
  8
0
  6
Continuous
 62
     7
100
AcDbLine
 10
-8.149999999999861
 20
-96.84494400000028
 30
0.0
 11
-8.149999999999861
 21
-97.34494400000016
 31
0.0
  0
LINE
  5
6570
330
A
100
AcDbEntity
  8
0
  6
Continuous
 62
     7
100
AcDbLine
 10
7.650000000000089
 20
-97.34494400000016
 30
0.0
 11
7.650000000000089
 21
-96.84494400000028
 31
0.0
  0
LINE
  5
6571
330
A
100
AcDbEntity
  8
0
  6
Continuous
 62
     7
100
AcDbLine
 10
36.85000000000014
 20
-96.84494400000028
 30
0.0
 11
36.85000000000014
 21
-97.34494400000016
 31
0.0
  0
LINE
  5
6572
330
A
100
AcDbEntity
  8
0
  6
Continuous
 62
     7
100
AcDbLine
 10
52.6500000000001
 20
-97.34494400000016
 30
0.0
 11
52.6500000000001
 21
-96.84494400000028
 31
0.0
  0
LINE
  5
6573
330
A
100
AcDbEntity
  8
0
  6
Continuous
 62
     7
100
AcDbLine
 10
-3.250004999999873
 20
101.744944
 30
0.0
 11
-0.25
 21
101.744944
 31
0.0
  0
LINE
  5
6574
330
A
100
AcDbEntity
  8
0
  6
Continuous
 62
     7
100
AcDbLine
 10
-0.25
 20
101.744944
 30
0.0
 11
2.750005000000101
 21
101.744944
 31
0.0
  0
LINE
  5
6575
330
A
100
AcDbEntity
  8
0
  6
Continuous
 62
     9
100
AcDbLine
 10
-2.75
 20
101.744944
 30
0.0
 11
-0.25
 21
101.744944
 31
0.0
  0
LINE
  5
6576
330
A
100
AcDbEntity
  8
0
  6
Continuous
 62
     7
100
AcDbLine
 10
41.74999500000011
 20
101.744944
 30
0.0
 11
44.75
 21
101.744944
 31
0.0
  0
LINE
  5
6577
330
A
100
AcDbEntity
  8
0
  6
Continuous
 62
     7
100
AcDbLine
 10
44.75
 20
101.744944
 30
0.0
 11
47.7500050000001
 21
101.744944
 31
0.0
  0
LINE
  5
6578
330
A
100
AcDbEntity
  8
0
  6
Continuous
 62
     9
100
AcDbLine
 10
42.25
 20
101.744944
 30
0.0
 11
44.75
 21
101.744944
 31
0.0
  0
LINE
  5
6579
330
A
100
AcDbEntity
  8
0
  6
Continuous
 62
     7
100
AcDbLine
 10
-9.75
 20
102.344944
 30
0.0
 11
-0.2545579999998608
 21
102.344944
 31
0.0
  0
LINE
  5
657A
330
A
100
AcDbEntity
  8
0
  6
Continuous
 62
     7
100
AcDbLine
 10
-0.2545579999998608
 20
102.344944
 30
0.0
 11
9.25
 21
102.344944
 31
0.0
  0
LINE
  5
657B
330
A
100
AcDbEntity
  8
0
  6
Continuous
 62
     7
100
AcDbLine
 10
35.25
 20
102.344944
 30
0.0
 11
44.74544200000013
 21
102.344944
 31
0.0
  0
LINE
  5
657C
330
A
100
AcDbEntity
  8
0
  6
Continuous
 62
     7
100
AcDbLine
 10
44.74544200000013
 20
102.344944
 30
0.0
 11
54.25
 21
102.344944
 31
0.0
  0
LINE
  5
657D
330
A
100
AcDbEntity
  8
0
  6
Continuous
 62
     9
100
AcDbLine
 10
-18.72234200000002
 20
111.344944
 30
0.0
 11
-18.72234200000002
 21
109.344944
 31
0.0
  0
LINE
  5
657E
330
A
100
AcDbEntity
  8
0
  6
Continuous
 62
     7
100
AcDbLine
 10
-18.72234200000002
 20
111.344944
 30
0.0
 11
73.25
 21
111.344944
 31
0.0
  0
LINE
  5
657F
330
A
100
AcDbEntity
  8
0
  6
Continuous
 62
     9
100
AcDbLine
 10
73.25
 20
111.344944
 30
0.0
 11
73.25
 21
109.344944
 31
0.0
  0
LINE
  5
6580
330
A
100
AcDbEntity
  8
0
  6
Continuous
 62
     7
100
AcDbLine
 10
-18.72234200000002
 20
109.344944
 30
0.0
 11
73.25
 21
109.344944
 31
0.0
  0
LINE
  5
6581
330
A
100
AcDbEntity
  8
0
  6
Continuous
 62
     9
100
AcDbLine
 10
-23.63418299999989
 20
111.344944
 30
0.0
 11
-23.63418299999989
 21
109.344944
 31
0.0
  0
LINE
  5
6582
330
A
100
AcDbEntity
  8
0
  6
Continuous
 62
     7
100
AcDbLine
 10
-23.63418299999989
 20
111.344944
 30
0.0
 11
-18.72234200000002
 21
111.344944
 31
0.0
  0
LINE
  5
6583
330
A
100
AcDbEntity
  8
0
  6
Continuous
 62
     7
100
AcDbLine
 10
-23.63418299999989
 20
109.344944
 30
0.0
 11
-18.72234200000002
 21
109.344944
 31
0.0
  0
LINE
  5
6584
330
A
100
AcDbEntity
  8
0
  6
Continuous
 62
     7
100
AcDbLine
 10
78.25
 20
111.344944
 30
0.0
 11
78.25
 21
109.344944
 31
0.0
  0
LINE
  5
6585
330
A
100
AcDbEntity
  8
0
  6
Continuous
 62
     7
100
AcDbLine
 10
73.25
 20
109.344944
 30
0.0
 11
78.25
 21
109.344944
 31
0.0
  0
LINE
  5
6586
330
A
100
AcDbEntity
  8
0
  6
Continuous
 62
     7
100
AcDbLine
 10
73.25
 20
111.344944
 30
0.0
 11
78.25
 21
111.344944
 31
0.0
  0
LINE
  5
6587
330
A
100
AcDbEntity
  8
0
  6
Continuous
 62
     7
100
AcDbLine
 10
-25.75
 20
111.344944
 30
0.0
 11
-25.75
 21
109.344944
 31
0.0
  0
LINE
  5
6588
330
A
100
AcDbEntity
  8
0
  6
Continuous
 62
     7
100
AcDbLine
 10
-25.75
 20
109.344944
 30
0.0
 11
-23.63418299999989
 21
109.344944
 31
0.0
  0
LINE
  5
6589
330
A
100
AcDbEntity
  8
0
  6
Continuous
 62
     7
100
AcDbLine
 10
-25.75
 20
111.344944
 30
0.0
 11
-23.63418299999989
 21
111.344944
 31
0.0
  0
LINE
  5
658A
330
A
100
AcDbEntity
  8
0
  6
Continuous
 62
     9
100
AcDbLine
 10
-18.72234200000002
 20
112.3449440000003
 30
0.0
 11
-18.72234200000002
 21
111.344944
 31
0.0
  0
LINE
  5
658B
330
A
100
AcDbEntity
  8
0
  6
Continuous
 62
     9
100
AcDbLine
 10
73.25
 20
112.3449440000003
 30
0.0
 11
73.25
 21
111.344944
 31
0.0
  0
LINE
  5
658C
330
A
100
AcDbEntity
  8
0
  6
Continuous
 62
     7
100
AcDbLine
 10
-18.72234200000002
 20
111.344944
 30
0.0
 11
73.25
 21
111.344944
 31
0.0
  0
LINE
  5
658D
330
A
100
AcDbEntity
  8
0
  6
Continuous
 62
     9
100
AcDbLine
 10
-23.63418299999989
 20
112.3449440000003
 30
0.0
 11
-23.63418299999989
 21
111.344944
 31
0.0
  0
LINE
  5
658E
330
A
100
AcDbEntity
  8
0
  6
Continuous
 62
     7
100
AcDbLine
 10
-23.63418299999989
 20
111.344944
 30
0.0
 11
-18.72234200000002
 21
111.344944
 31
0.0
  0
LINE
  5
658F
330
A
100
AcDbEntity
  8
0
  6
Continuous
 62
     7
100
AcDbLine
 10
78.25
 20
112.3449440000003
 30
0.0
 11
78.25
 21
111.344944
 31
0.0
  0
LINE
  5
6590
330
A
100
AcDbEntity
  8
0
  6
Continuous
 62
     7
100
AcDbLine
 10
73.25
 20
111.344944
 30
0.0
 11
78.25
 21
111.344944
 31
0.0
  0
LINE
  5
6591
330
A
100
AcDbEntity
  8
0
  6
Continuous
 62
     7
100
AcDbLine
 10
-25.75
 20
112.3449440000003
 30
0.0
 11
-25.75
 21
111.344944
 31
0.0
  0
LINE
  5
6592
330
A
100
AcDbEntity
  8
0
  6
Continuous
 62
     7
100
AcDbLine
 10
-25.75
 20
111.344944
 30
0.0
 11
-23.63418299999989
 21
111.344944
 31
0.0
  0
LINE
  5
6593
330
A
100
AcDbEntity
  8
0
  6
Continuous
 62
     7
100
AcDbLine
 10
62.75
 20
101.344944
 30
0.0
 11
-23.056464
 21
101.344944
 31
0.0
  0
LINE
  5
6594
330
A
100
AcDbEntity
  8
0
  6
Continuous
 62
     7
100
AcDbLine
 10
62.75
 20
101.344944
 30
0.0
 11
62.75
 21
95.82494400000006
 31
0.0
  0
LINE
  5
6595
330
A
100
AcDbEntity
  8
0
  6
Continuous
 62
     7
100
AcDbLine
 10
-23.056464
 20
95.82494400000006
 30
0.0
 11
62.75
 21
95.82494400000006
 31
0.0
  0
LINE
  5
6596
330
A
100
AcDbEntity
  8
0
  6
Continuous
 62
     7
100
AcDbLine
 10
-23.056464
 20
95.82494400000006
 30
0.0
 11
-23.056464
 21
101.344944
 31
0.0
  0
ARC
  5
6597
330
A
100
AcDbEntity
  8
0
  6
Continuous
 62
     7
100
AcDbCircle
 10
-41.52690600000005
 20
104.0928269999997
 30
0.0
 40
20.23648
100
AcDbArc
 50
324.5458060000022
 51
335.8853830000033
  0
LINE
  5
6598
330
A
100
AcDbEntity
  8
0
  6
Continuous
 62
     7
100
AcDbLine
 10
-25.04268400000001
 20
92.35461799999995
 30
0.0
 11
-26.25
 21
90.82494400000006
 31
0.0
  0
LINE
  5
6599
330
A
100
AcDbEntity
  8
0
  6
Continuous
 62
     7
100
AcDbLine
 10
-23.056464
 20
101.344944
 30
0.0
 11
-26.25
 21
101.344944
 31
0.0
  0
LINE
  5
659A
330
A
100
AcDbEntity
  8
0
  6
Continuous
 62
     9
100
AcDbLine
 10
-25.04268400000001
 20
92.35461799999995
 30
0.0
 11
62.75
 21
92.35461799999995
 31
0.0
  0
LINE
  5
659B
330
A
100
AcDbEntity
  8
0
  6
Continuous
 62
     7
100
AcDbLine
 10
62.75
 20
92.35461799999995
 30
0.0
 11
62.75
 21
95.82494400000006
 31
0.0
  0
LINE
  5
659C
330
A
100
AcDbEntity
  8
0
  6
Continuous
 62
     7
100
AcDbLine
 10
62.75
 20
90.82494400000006
 30
0.0
 11
62.75
 21
92.35461799999995
 31
0.0
  0
LINE
  5
659D
330
A
100
AcDbEntity
  8
0
  6
Continuous
 62
     9
100
AcDbLine
 10
-0.6621329999998125
 20
101.744944
 30
0.0
 11
-0.3501369999999042
 21
101.744944
 31
0.0
  0
LINE
  5
659E
330
A
100
AcDbEntity
  8
0
  6
Continuous
 62
     9
100
AcDbLine
 10
-0.3501369999999042
 20
101.744944
 30
0.0
 11
-0.2740029999999933
 21
101.744944
 31
0.0
  0
LINE
  5
659F
330
A
100
AcDbEntity
  8
0
  6
Continuous
 62
     7
100
AcDbLine
 10
86.0
 20
101.0945759999997
 30
0.0
 11
81.0
 21
101.0945759999997
 31
0.0
  0
LINE
  5
65A0
330
A
100
AcDbEntity
  8
0
  6
Continuous
 62
     7
100
AcDbLine
 10
81.0
 20
101.0945759999997
 30
0.0
 11
81.0
 21
143.0945759999997
 31
0.0
  0
LINE
  5
65A1
330
A
100
AcDbEntity
  8
0
  6
Continuous
 62
     7
100
AcDbLine
 10
81.0
 20
143.0945759999997
 30
0.0
 11
86.0
 21
143.0945759999997
 31
0.0
  0
LINE
  5
65A2
330
A
100
AcDbEntity
  8
0
  6
Continuous
 62
     7
100
AcDbLine
 10
86.0
 20
143.0945759999997
 30
0.0
 11
86.0
 21
101.0945759999997
 31
0.0
  0
LINE
  5
65A3
330
A
100
AcDbEntity
  8
0
  6
Continuous
 62
     9
100
AcDbLine
 10
79.5
 20
115.0945759999997
 30
0.0
 11
79.5
 21
139.0945759999997
 31
0.0
  0
ARC
  5
65A4
330
A
100
AcDbEntity
  8
0
  6
Continuous
 62
     7
100
AcDbCircle
 10
79.5
 20
140.5945759999999
 30
0.0
 40
1.5
100
AcDbArc
 50
270.0
 51
0.0
  0
ARC
  5
65A5
330
A
100
AcDbEntity
  8
0
  6
Continuous
 62
     7
100
AcDbCircle
 10
79.49999899999989
 20
113.5945749999997
 30
0.0
 40
1.500000999999999
100
AcDbArc
 50
0.0000280000002125
 51
89.99997199999979
  0
ARC
  5
65A6
330
A
100
AcDbEntity
  8
0
  6
Continuous
 62
     7
100
AcDbCircle
 10
68.00009199999999
 20
127.0946679999999
 30
0.0
 40
12.000092
100
AcDbArc
 50
180.0004399999987
 51
269.9995599999948
  0
LINE
  5
65A7
330
A
100
AcDbEntity
  8
0
  6
Continuous
 62
     7
100
AcDbLine
 10
68.0
 20
139.0945759999997
 30
0.0
 11
79.5
 21
139.0945759999997
 31
0.0
  0
LINE
  5
65A8
330
A
100
AcDbEntity
  8
0
  6
Continuous
 62
     7
100
AcDbLine
 10
79.5
 20
115.0945759999997
 30
0.0
 11
68.0
 21
115.0945759999997
 31
0.0
  0
ARC
  5
65A9
330
A
100
AcDbEntity
  8
0
  6
Continuous
 62
     7
100
AcDbCircle
 10
68.0000789999999
 20
127.0944969999997
 30
0.0
 40
12.000079
100
AcDbArc
 50
90.00037700000145
 51
179.9996229999985
  0
LINE
  5
65AA
330
A
100
AcDbEntity
  8
0
  6
Continuous
 62
     7
100
AcDbLine
 10
81.0
 20
140.5945759999999
 30
0.0
 11
80.80000000000017
 21
140.5945759999999
 31
0.0
  0
LINE
  5
65AB
330
A
100
AcDbEntity
  8
0
  6
Continuous
 62
     7
100
AcDbLine
 10
81.0
 20
113.5945759999997
 30
0.0
 11
80.80000000000017
 21
113.5945759999997
 31
0.0
  0
LINE
  5
65AC
330
A
100
AcDbEntity
  8
0
  6
Continuous
 62
     7
100
AcDbLine
 10
80.80000000000017
 20
140.5945759999999
 30
0.0
 11
80.80000000000017
 21
139.846822
 31
0.0
  0
LINE
  5
65AD
330
A
100
AcDbEntity
  8
0
  6
Continuous
 62
     7
100
AcDbLine
 10
80.80000000000017
 20
114.3420559999997
 30
0.0
 11
80.80000000000017
 21
113.5945759999997
 31
0.0
  0
LINE
  5
65AE
330
A
100
AcDbEntity
  8
0
  6
Continuous
 62
     7
100
AcDbLine
 10
80.80000000000017
 20
140.5945759999999
 30
0.0
 11
80.80000000000017
 21
143.0945759999997
 31
0.0
  0
LINE
  5
65AF
330
A
100
AcDbEntity
  8
0
  6
Continuous
 62
     7
100
AcDbLine
 10
81.0
 20
143.0945759999997
 30
0.0
 11
80.80000000000017
 21
143.0945759999997
 31
0.0
  0
LINE
  5
65B0
330
A
100
AcDbEntity
  8
0
  6
Continuous
 62
     9
100
AcDbLine
 10
-25.94999999999982
 20
137.878724
 30
0.0
 11
-25.94999999999982
 21
116.811419
 31
0.0
  0
LINE
  5
65B1
330
A
100
AcDbEntity
  8
0
  6
Continuous
 62
     7
100
AcDbLine
 10
-26.25
 20
114.6449439999999
 30
0.0
 11
-26.25
 21
140.044944
 31
0.0
  0
ARC
  5
65B2
330
A
100
AcDbEntity
  8
0
  6
Continuous
 62
     7
100
AcDbCircle
 10
43.75
 20
120.344944
 30
0.0
 40
3.995
100
AcDbArc
 50
89.99999900000508
 51
179.9999989999986
  0
ARC
  5
65B3
330
A
100
AcDbEntity
  8
0
  6
Continuous
 62
     7
100
AcDbCircle
 10
43.75
 20
120.344944
 30
0.0
 40
3.995
100
AcDbArc
 50
179.9999989999986
 51
89.99999900000508
  0
CIRCLE
  5
65B4
330
A
100
AcDbEntity
  8
0
  6
Continuous
 62
     7
100
AcDbCircle
 10
43.75
 20
120.344944
 30
0.0
 40
3.9
  0
CIRCLE
  5
65B5
330
A
100
AcDbEntity
  8
0
  6
Continuous
 62
     7
100
AcDbCircle
 10
43.75
 20
120.344944
 30
0.0
 40
3.6
  0
LINE
  5
65B6
330
A
100
AcDbEntity
  8
0
  6
Continuous
 62
     7
100
AcDbLine
 10
44.77715499999999
 20
118.950328
 30
0.0
 11
45.47135000000003
 21
120.537179
 31
0.0
  0
LINE
  5
65B7
330
A
100
AcDbEntity
  8
0
  6
Continuous
 62
     7
100
AcDbLine
 10
45.47135000000003
 20
120.537179
 30
0.0
 11
44.44419400000015
 21
121.9317940000002
 31
0.0
  0
LINE
  5
65B8
330
A
100
AcDbEntity
  8
0
  6
Continuous
 62
     7
100
AcDbLine
 10
44.44419400000015
 20
121.9317940000002
 30
0.0
 11
42.72284400000011
 21
121.739559
 31
0.0
  0
LINE
  5
65B9
330
A
100
AcDbEntity
  8
0
  6
Continuous
 62
     7
100
AcDbLine
 10
42.72284400000011
 20
121.739559
 30
0.0
 11
42.02865000000018
 21
120.1527089999997
 31
0.0
  0
LINE
  5
65BA
330
A
100
AcDbEntity
  8
0
  6
Continuous
 62
     7
100
AcDbLine
 10
42.02865000000018
 20
120.1527089999997
 30
0.0
 11
43.05580499999996
 21
118.7580929999997
 31
0.0
  0
LINE
  5
65BB
330
A
100
AcDbEntity
  8
0
  6
Continuous
 62
     7
100
AcDbLine
 10
43.05580499999996
 20
118.7580929999997
 30
0.0
 11
44.77715499999999
 21
118.950328
 31
0.0
  0
ARC
  5
65BC
330
A
100
AcDbEntity
  8
0
  6
Continuous
 62
     7
100
AcDbCircle
 10
43.75
 20
120.344944
 30
0.0
 40
1.5
100
AcDbArc
 50
336.3722110000007
 51
36.37221100000001
  0
ARC
  5
65BD
330
A
100
AcDbEntity
  8
0
  6
Continuous
 62
     7
100
AcDbCircle
 10
43.75
 20
120.344944
 30
0.0
 40
1.5
100
AcDbArc
 50
36.37221100000001
 51
96.37221099999926
  0
ARC
  5
65BE
330
A
100
AcDbEntity
  8
0
  6
Continuous
 62
     7
100
AcDbCircle
 10
43.75
 20
120.344944
 30
0.0
 40
1.5
100
AcDbArc
 50
276.3722109999993
 51
336.3722110000007
  0
ARC
  5
65BF
330
A
100
AcDbEntity
  8
0
  6
Continuous
 62
     7
100
AcDbCircle
 10
43.75
 20
120.344944
 30
0.0
 40
1.5
100
AcDbArc
 50
96.37221099999926
 51
156.3722110000006
  0
ARC
  5
65C0
330
A
100
AcDbEntity
  8
0
  6
Continuous
 62
     7
100
AcDbCircle
 10
43.75
 20
120.344944
 30
0.0
 40
1.5
100
AcDbArc
 50
216.372211
 51
276.3722109999993
  0
ARC
  5
65C1
330
A
100
AcDbEntity
  8
0
  6
Continuous
 62
     7
100
AcDbCircle
 10
43.75
 20
120.344944
 30
0.0
 40
1.5
100
AcDbArc
 50
156.3722110000006
 51
216.372211
  0
LINE
  5
65C2
330
A
100
AcDbEntity
  8
0
  6
Continuous
 62
     9
100
AcDbLine
 10
63.16532700000015
 20
138.0745519999997
 30
0.0
 11
-23.056464
 21
138.0745519999997
 31
0.0
  0
LINE
  5
65C9
330
A
100
AcDbEntity
  8
0
  6
Continuous
 62
     9
100
AcDbLine
 10
-23.23207400000001
 20
139.0445480000001
 30
0.0
 11
66.92733700000008
 21
139.0445480000001
 31
0.0
  0
LINE
  5
65CA
330
A
100
AcDbEntity
  8
0
  6
Continuous
 62
     7
100
AcDbLine
 10
-23.056464
 20
112.3449440000003
 30
0.0
 11
-23.056464
 21
138.0745519999997
 31
0.0
  0
CIRCLE
  5
65CB
330
A
100
AcDbEntity
  8
0
  6
Continuous
 62
     7
100
AcDbCircle
 10
43.75
 20
120.344944
 30
0.0
 40
4.5
  0
LINE
  5
65CC
330
A
100
AcDbEntity
  8
0
  6
Continuous
 62
     7
100
AcDbLine
 10
-23.056464
 20
112.3449440000003
 30
0.0
 11
78.75
 21
112.3449440000003
 31
0.0
  0
LINE
  5
65CD
330
A
100
AcDbEntity
  8
0
  6
Continuous
 62
     7
100
AcDbLine
 10
78.75
 20
115.0945759999997
 30
0.0
 11
78.75
 21
112.3449440000003
 31
0.0
  0
CIRCLE
  5
65CE
330
A
100
AcDbEntity
  8
0
  6
Continuous
 62
     7
100
AcDbCircle
 10
43.75
 20
120.344944
 30
0.0
 40
4.0
  0
LINE
  5
65CF
330
A
100
AcDbEntity
  8
0
  6
Continuous
 62
     7
100
AcDbLine
 10
-26.25
 20
112.3449440000003
 30
0.0
 11
-23.056464
 21
112.3449440000003
 31
0.0
  0
LINE
  5
65D0
330
A
100
AcDbEntity
  8
0
  6
Continuous
 62
     7
100
AcDbLine
 10
-23.23207400000001
 20
139.0445480000001
 30
0.0
 11
-26.25
 21
142.344944
 31
0.0
  0
ARC
  5
65D1
330
A
100
AcDbEntity
  8
0
  6
Continuous
 62
     7
100
AcDbCircle
 10
-144.487077
 20
127.344944
 30
0.0
 40
119.005278
100
AcDbArc
 50
353.4863249999985
 51
6.513675000001532
  0
LINE
  5
65D2
330
A
100
AcDbEntity
  8
0
  6
Continuous
 62
     7
100
AcDbLine
 10
62.878191
 20
142.333978
 30
0.0
 11
62.56419099999993
 21
142.344944
 31
0.0
  0
ARC
  5
65D3
330
A
100
AcDbEntity
  8
0
  6
Continuous
 62
     7
100
AcDbCircle
 10
62.25
 20
124.344944
 30
0.0
 40
18.0
100
AcDbArc
 50
55.0436779999967
 51
87.99999999999625
  0
LINE
  5
65D4
330
A
100
AcDbEntity
  8
0
  6
Continuous
 62
     7
100
AcDbLine
 10
36.85000000000014
 20
101.844944
 30
0.0
 11
44.75
 21
101.844944
 31
0.0
  0
LINE
  5
65D5
330
A
100
AcDbEntity
  8
0
  6
Continuous
 62
     7
100
AcDbLine
 10
44.75
 20
101.844944
 30
0.0
 11
52.6500000000001
 21
101.844944
 31
0.0
  0
LINE
  5
65D6
330
A
100
AcDbEntity
  8
0
  6
Continuous
 62
     7
100
AcDbLine
 10
-8.149999999999861
 20
101.844944
 30
0.0
 11
-0.25
 21
101.844944
 31
0.0
  0
LINE
  5
65D7
330
A
100
AcDbEntity
  8
0
  6
Continuous
 62
     7
100
AcDbLine
 10
-0.25
 20
101.844944
 30
0.0
 11
7.650000000000089
 21
101.844944
 31
0.0
  0
LINE
  5
65D8
330
A
100
AcDbEntity
  8
0
  6
Continuous
 62
     9
100
AcDbLine
 10
-2.75
 20
101.844944
 30
0.0
 11
-2.75
 21
101.744944
 31
0.0
  0
LINE
  5
65D9
330
A
100
AcDbEntity
  8
0
  6
Continuous
 62
     9
100
AcDbLine
 10
2.25
 20
101.744944
 30
0.0
 11
2.25
 21
101.844944
 31
0.0
  0
LINE
  5
65DA
330
A
100
AcDbEntity
  8
0
  6
Continuous
 62
     9
100
AcDbLine
 10
42.25
 20
101.844944
 30
0.0
 11
42.25
 21
101.744944
 31
0.0
  0
LINE
  5
65DB
330
A
100
AcDbEntity
  8
0
  6
Continuous
 62
     9
100
AcDbLine
 10
47.25
 20
101.744944
 30
0.0
 11
47.25
 21
101.844944
 31
0.0
  0
LINE
  5
65DC
330
A
100
AcDbEntity
  8
0
  6
Continuous
 62
     7
100
AcDbLine
 10
9.25
 20
102.344944
 30
0.0
 11
9.25
 21
109.344944
 31
0.0
  0
LINE
  5
65DD
330
A
100
AcDbEntity
  8
0
  6
Continuous
 62
     7
100
AcDbLine
 10
-9.75
 20
109.344944
 30
0.0
 11
-9.75
 21
102.344944
 31
0.0
  0
LINE
  5
65DE
330
A
100
AcDbEntity
  8
0
  6
Continuous
 62
     7
100
AcDbLine
 10
54.25
 20
102.344944
 30
0.0
 11
54.25
 21
109.344944
 31
0.0
  0
LINE
  5
65DF
330
A
100
AcDbEntity
  8
0
  6
Continuous
 62
     7
100
AcDbLine
 10
35.25
 20
109.344944
 30
0.0
 11
35.25
 21
102.344944
 31
0.0
  0
LINE
  5
65E0
330
A
100
AcDbEntity
  8
0
  6
Continuous
 62
     7
100
AcDbLine
 10
-26.25
 20
101.344944
 30
0.0
 11
-26.25
 21
90.82494400000006
 31
0.0
  0
LINE
  5
65E1
330
A
100
AcDbEntity
  8
0
  6
Continuous
 62
     7
100
AcDbLine
 10
-26.25
 20
90.82494400000006
 30
0.0
 11
62.75
 21
90.82494400000006
 31
0.0
  0
LINE
  5
65E2
330
A
100
AcDbEntity
  8
0
  6
Continuous
 62
     7
100
AcDbLine
 10
-3.25
 20
101.8449289999996
 30
0.0
 11
-3.25
 21
101.739944
 31
0.0
  0
LINE
  5
65E3
330
A
100
AcDbEntity
  8
0
  6
Continuous
 62
     7
100
AcDbLine
 10
2.75
 20
101.739944
 30
0.0
 11
2.75
 21
101.744944
 31
0.0
  0
LINE
  5
65E4
330
A
100
AcDbEntity
  8
0
  6
Continuous
 62
     7
100
AcDbLine
 10
2.75
 20
101.744944
 30
0.0
 11
2.75
 21
101.8449289999996
 31
0.0
  0
LINE
  5
65E5
330
A
100
AcDbEntity
  8
0
  6
Continuous
 62
     7
100
AcDbLine
 10
-3.25
 20
101.749944
 30
0.0
 11
-3.25
 21
101.344944
 31
0.0
  0
LINE
  5
65E6
330
A
100
AcDbEntity
  8
0
  6
Continuous
 62
     7
100
AcDbLine
 10
2.75
 20
101.344944
 30
0.0
 11
2.75
 21
101.744944
 31
0.0
  0
LINE
  5
65E7
330
A
100
AcDbEntity
  8
0
  6
Continuous
 62
     7
100
AcDbLine
 10
2.75
 20
101.744944
 30
0.0
 11
2.75
 21
101.749944
 31
0.0
  0
LINE
  5
65E8
330
A
100
AcDbEntity
  8
0
  6
Continuous
 62
     7
100
AcDbLine
 10
41.74999999999999
 20
101.8449289999996
 30
0.0
 11
41.74999999999999
 21
101.739944
 31
0.0
  0
LINE
  5
65E9
330
A
100
AcDbEntity
  8
0
  6
Continuous
 62
     7
100
AcDbLine
 10
47.75
 20
101.739944
 30
0.0
 11
47.75
 21
101.744944
 31
0.0
  0
LINE
  5
65EA
330
A
100
AcDbEntity
  8
0
  6
Continuous
 62
     7
100
AcDbLine
 10
47.75
 20
101.744944
 30
0.0
 11
47.75
 21
101.8449289999996
 31
0.0
  0
LINE
  5
65EB
330
A
100
AcDbEntity
  8
0
  6
Continuous
 62
     7
100
AcDbLine
 10
41.74999999999999
 20
101.749944
 30
0.0
 11
41.74999999999999
 21
101.344944
 31
0.0
  0
LINE
  5
65EC
330
A
100
AcDbEntity
  8
0
  6
Continuous
 62
     7
100
AcDbLine
 10
47.75
 20
101.344944
 30
0.0
 11
47.75
 21
101.744944
 31
0.0
  0
LINE
  5
65ED
330
A
100
AcDbEntity
  8
0
  6
Continuous
 62
     7
100
AcDbLine
 10
47.75
 20
101.744944
 30
0.0
 11
47.75
 21
101.749944
 31
0.0
  0
ARC
  5
65EE
330
A
100
AcDbEntity
  8
0
  6
Continuous
 62
     7
100
AcDbCircle
 10
-25.94999999999982
 20
140.044944
 30
0.0
 40
0.3
100
AcDbArc
 50
140.737446999997
 51
180.0
  0
ARC
  5
65EF
330
A
100
AcDbEntity
  8
0
  6
Continuous
 62
     7
100
AcDbCircle
 10
-25.94999999999982
 20
114.6449439999999
 30
0.0
 40
0.3
100
AcDbArc
 50
180.0
 51
219.2979060000017
  0
LINE
  5
65F0
330
A
100
AcDbEntity
  8
0
  6
Continuous
 62
     7
100
AcDbLine
 10
-26.25
 20
113.84495
 30
0.0
 11
-26.25
 21
112.3449440000003
 31
0.0
  0
LINE
  5
65F1
330
A
100
AcDbEntity
  8
0
  6
Continuous
 62
     7
100
AcDbLine
 10
-26.25
 20
142.344944
 30
0.0
 11
-26.25
 21
140.844944
 31
0.0
  0
LINE
  5
65F2
330
A
100
AcDbEntity
  8
0
  6
Continuous
 62
     7
100
AcDbLine
 10
62.56419099999993
 20
142.344944
 30
0.0
 11
-26.25
 21
142.344944
 31
0.0
  0
LINE
  5
65F3
330
A
100
AcDbEntity
  8
0
  6
Continuous
 62
     7
100
AcDbLine
 10
52.6500000000001
 20
101.844944
 30
0.0
 11
52.6500000000001
 21
102.344944
 31
0.0
  0
LINE
  5
65F4
330
A
100
AcDbEntity
  8
0
  6
Continuous
 62
     7
100
AcDbLine
 10
36.85000000000014
 20
102.344944
 30
0.0
 11
36.85000000000014
 21
101.844944
 31
0.0
  0
LINE
  5
65F5
330
A
100
AcDbEntity
  8
0
  6
Continuous
 62
     7
100
AcDbLine
 10
7.650000000000089
 20
101.844944
 30
0.0
 11
7.650000000000089
 21
102.344944
 31
0.0
  0
LINE
  5
65F6
330
A
100
AcDbEntity
  8
0
  6
Continuous
 62
     7
100
AcDbLine
 10
-8.149999999999861
 20
102.344944
 30
0.0
 11
-8.149999999999861
 21
101.844944
 31
0.0
  0
ELLIPSE
  5
65F7
330
A
100
AcDbEntity
  8
0
  6
Continuous
 62
     7
100
AcDbEllipse
 10
211.5482529999999
 20
-100.6563059999999
 30
0.0
 11
-0.7999999999999118
 21
-3.919183588453107
 31
0.0
210
0.0
220
0.0
230
1.0
 40
0.4082480000000002
 41
2.034580408972264
 42
2.891097084569235
  0
ELLIPSE
  5
65F8
330
A
100
AcDbEntity
  8
0
  6
Continuous
 62
     7
100
AcDbEllipse
 10
211.5482529999999
 20
-100.6563059999999
 30
0.0
 11
-0.7999999999999118
 21
-3.919183588453107
 31
0.0
210
0.0
220
0.0
230
1.0
 40
0.4082480000000002
 41
0.2504955955804681
 42
2.034580408972264
  0
LINE
  5
65F9
330
A
100
AcDbEntity
  8
0
  6
Continuous
 62
     7
100
AcDbLine
 10
212.084867
 20
-99.585558
 30
0.0
 11
212.0849510000001
 21
-100.8504
 31
0.0
  0
LINE
  5
65FA
330
A
100
AcDbEntity
  8
0
  6
Continuous
 62
     7
100
AcDbLine
 10
211.548168
 20
-99.39146399999998
 30
0.0
 11
212.084867
 21
-99.585558
 31
0.0
  0
LINE
  5
65FB
330
A
100
AcDbEntity
  8
0
  6
Continuous
 62
     7
100
AcDbLine
 10
211.0115539999999
 20
-100.4622129999999
 30
0.0
 11
211.548168
 21
-99.39146399999998
 31
0.0
  0
LINE
  5
65FC
330
A
100
AcDbEntity
  8
0
  6
Continuous
 62
     7
100
AcDbLine
 10
211.0116390000001
 20
-101.727055
 30
0.0
 11
211.0115539999999
 21
-100.4622129999999
 31
0.0
  0
LINE
  5
65FD
330
A
100
AcDbEntity
  8
0
  6
Continuous
 62
     7
100
AcDbLine
 10
211.5483369999999
 20
-101.921148
 30
0.0
 11
211.0116390000001
 21
-101.727055
 31
0.0
  0
LINE
  5
65FE
330
A
100
AcDbEntity
  8
0
  6
Continuous
 62
     7
100
AcDbLine
 10
212.0849510000001
 20
-100.8504
 30
0.0
 11
211.5483369999999
 21
-101.921148
 31
0.0
  0
LINE
  5
65FF
330
A
100
AcDbEntity
  8
0
  6
Continuous
 62
     7
100
AcDbLine
 10
212.084867
 20
-99.585558
 30
0.0
 11
211.509732
 21
-99.46815899999997
 31
0.0
  0
LINE
  5
6600
330
A
100
AcDbEntity
  8
0
  6
Continuous
 62
     7
100
AcDbLine
 10
212.0849510000001
 20
-100.8504
 30
0.0
 11
211.011565
 21
-100.6312960000001
 31
0.0
  0
LINE
  5
6601
330
A
100
AcDbEntity
  8
0
  6
Continuous
 62
     9
100
AcDbLine
 10
143.6987760000002
 20
-84.98098200000015
 30
0.0
 11
144.0565469999999
 21
-84.68886399999997
 31
0.0
  0
LINE
  5
6602
330
A
100
AcDbEntity
  8
0
  6
Continuous
 62
     7
100
AcDbLine
 10
190.159702
 20
-94.09963099999986
 30
0.0
 11
144.0565469999999
 21
-84.68886399999997
 31
0.0
  0
ELLIPSE
  5
6603
330
A
100
AcDbEntity
  8
0
  6
Continuous
 62
     7
100
AcDbEllipse
 10
144.0565469999999
 20
-88.34034699999985
 30
0.0
 11
2.529822128134683
 21
-3.098386676966043
 31
0.0000000000000002
210
0.0
220
0.0
230
0.9999999999999998
 40
0.8164970000000002
 41
2.356194490192315
 42
2.807221301986007
  0
LINE
  5
6604
330
A
100
AcDbEntity
  8
0
  6
Continuous
 62
     7
100
AcDbLine
 10
143.8174690000001
 20
-80.98857800000018
 30
0.0
 11
190.5117670000002
 21
-90.52001199999999
 31
0.0
  0
ELLIPSE
  5
6605
330
A
100
AcDbEntity
  8
0
  6
Continuous
 62
     7
100
AcDbEllipse
 10
227.397371
 20
-118.1324150000001
 30
0.0
 11
-60.71573108564876
 21
74.36128023867782
 31
0.0000000000000017
210
0.0
220
-0.0000000000000001
230
0.9999999999999998
 40
0.8164970000000002
 41
0.5541766838257322
 42
0.5985778040272699
  0
LINE
  5
6606
330
A
100
AcDbEntity
  8
0
  6
Continuous
 62
     7
100
AcDbLine
 10
190.159702
 20
-93.73448200000012
 30
0.0
 11
150.4766319999998
 21
-85.63420999999994
 31
0.0
  0
ELLIPSE
  5
6607
330
A
100
AcDbEntity
  8
0
  6
Continuous
 62
     7
100
AcDbEllipse
 10
150.4766319999998
 20
-90.01599000000004
 30
0.0
 11
3.035786554282716
 21
-3.718064011934306
 31
0.0
210
-0.0000000000000001
220
0.0
230
1.0
 40
0.816497
 41
2.356194490077978
 42
2.767332351554299
  0
LINE
  5
6608
330
A
100
AcDbEntity
  8
0
  6
Continuous
 62
     7
100
AcDbLine
 10
145.7923639999999
 20
-79.37608299999998
 30
0.0
 11
192.1743610000001
 21
-88.84376900000019
 31
0.0
  0
LINE
  5
6609
330
A
100
AcDbEntity
  8
0
  6
Continuous
 62
     7
100
AcDbLine
 10
143.8174690000001
 20
-80.98857800000018
 30
0.0
 11
145.7923639999999
 21
-79.37608299999998
 31
0.0
  0
ELLIPSE
  5
660A
330
A
100
AcDbEntity
  8
0
  6
Continuous
 62
     7
100
AcDbEllipse
 10
154.054341
 20
-93.66747400000013
 30
0.0
 11
5.059644256269367
 21
-6.196773353931872
 31
0.0000000000000003
210
0.0000000000000001
220
0.0000000000000001
230
1.0
 40
0.816497
 41
2.356194490192184
 42
2.673754919483134
  0
ELLIPSE
  5
660B
330
A
100
AcDbEntity
  8
0
  6
Continuous
 62
     7
100
AcDbEllipse
 10
155.843196
 20
-92.20687999999995
 30
0.0
 11
-5.059644256269367
 21
6.196773353931872
 31
0.0000000000000002
210
0.0
220
-0.0000000000000001
230
1.0
 40
0.816497
 41
6.220521391868293
 42
6.283185307179584
  0
ELLIPSE
  5
660C
330
A
100
AcDbEntity
  8
0
  6
Continuous
 62
     9
100
AcDbEllipse
 10
209.1690760000001
 20
-111.9466940000001
 30
0.0
 11
0.0136303008742011
 21
0.0667745643644357
 31
0.0
210
0.0
220
0.0
230
0.9999999999999998
 40
0.4082480000000003
 41
0.0
 42
6.283185307179584
  0
ELLIPSE
  5
660D
330
A
100
AcDbEntity
  8
0
  6
Continuous
 62
     9
100
AcDbEllipse
 10
209.1690760000001
 20
-142.619157
 30
0.0
 11
0.0136303008742011
 21
0.0667745643643802
 31
0.0
210
0.0
220
0.0
230
0.9999999999999998
 40
0.4082480000000002
 41
0.0
 42
6.283185307179584
  0
ELLIPSE
  5
660E
330
A
100
AcDbEntity
  8
0
  6
Continuous
 62
     7
100
AcDbEllipse
 10
211.5482529999999
 20
-148.1255950000001
 30
0.0
 11
-0.799999999999912
 21
-3.919183588453056
 31
0.0000000000000003
210
0.0
220
0.0000000000000001
230
1.0
 40
0.4082480000000002
 41
0.2504955955884724
 42
2.034432157873748
  0
LINE
  5
660F
330
A
100
AcDbEntity
  8
0
  6
Continuous
 62
     7
100
AcDbLine
 10
212.0849129999999
 20
-147.054971
 30
0.0
 11
212.0849049999999
 21
-148.319888
 31
0.0
  0
LINE
  5
6610
330
A
100
AcDbEntity
  8
0
  6
Continuous
 62
     7
100
AcDbLine
 10
211.54826
 20
-146.860678
 30
0.0
 11
212.0849129999999
 21
-147.054971
 31
0.0
  0
LINE
  5
6611
330
A
100
AcDbEntity
  8
0
  6
Continuous
 62
     7
100
AcDbLine
 10
211.0116
 20
-147.9313009999999
 30
0.0
 11
211.54826
 21
-146.860678
 31
0.0
  0
LINE
  5
6612
330
A
100
AcDbEntity
  8
0
  6
Continuous
 62
     7
100
AcDbLine
 10
211.0115930000002
 20
-149.1962179999999
 30
0.0
 11
211.0116
 21
-147.9313009999999
 31
0.0
  0
LINE
  5
6613
330
A
100
AcDbEntity
  8
0
  6
Continuous
 62
     7
100
AcDbLine
 10
211.548245
 20
-149.390512
 30
0.0
 11
211.0115930000002
 21
-149.1962179999999
 31
0.0
  0
LINE
  5
6614
330
A
100
AcDbEntity
  8
0
  6
Continuous
 62
     7
100
AcDbLine
 10
212.0849049999999
 20
-148.319888
 30
0.0
 11
211.548245
 21
-149.390512
 31
0.0
  0
ELLIPSE
  5
6615
330
A
100
AcDbEntity
  8
0
  6
Continuous
 62
     7
100
AcDbEllipse
 10
211.5482529999999
 20
-148.1255950000001
 30
0.0
 11
-0.799999999999912
 21
-3.919183588453056
 31
0.0000000000000003
210
0.0
220
0.0000000000000001
230
1.0
 40
0.4082480000000002
 41
2.034432157873735
 42
2.891097084560048
  0
LINE
  5
6616
330
A
100
AcDbEntity
  8
0
  6
Continuous
 62
     7
100
AcDbLine
 10
212.0849129999999
 20
-147.054971
 30
0.0
 11
211.509722
 21
-146.937561
 31
0.0
  0
LINE
  5
6617
330
A
100
AcDbEntity
  8
0
  6
Continuous
 62
     7
100
AcDbLine
 10
212.0849049999999
 20
-148.319888
 30
0.0
 11
211.0115989999999
 21
-148.1008
 31
0.0
  0
ELLIPSE
  5
6618
330
A
100
AcDbEntity
  8
0
  6
Continuous
 62
     7
100
AcDbEllipse
 10
214.428308
 20
-123.06181
 30
0.0
 11
8.800000000001693
 21
43.11101947298356
 31
-0.0000000000000031
210
0.0
220
0.0000000000000001
230
0.9999999999999998
 40
0.4082480000000002
 41
3.213477540061503
 42
3.997002985467991
  0
LINE
  5
6619
330
A
100
AcDbEntity
  8
0
  6
Continuous
 62
     7
100
AcDbLine
 10
206.9151200000001
 20
-92.07308499999994
 30
0.0
 11
206.9151200000001
 21
-166.3195210000002
 31
0.0
  0
ELLIPSE
  5
661A
330
A
100
AcDbEntity
  8
0
  6
Continuous
 62
     7
100
AcDbEllipse
 10
214.428308
 20
-123.06181
 30
0.0
 11
8.799999999999915
 21
43.11101947298399
 31
0.0
210
0.0
220
0.0
230
1.0
 40
0.4082480000000002
 41
0.0718848861234219
 42
0.8554103315299098
  0
LINE
  5
661B
330
A
100
AcDbEntity
  8
0
  6
Continuous
 62
     7
100
AcDbLine
 10
221.941497
 20
-154.050536
 30
0.0
 11
221.941497
 21
-79.80409900000019
 31
0.0
  0
ELLIPSE
  5
661C
330
A
100
AcDbEntity
  8
0
  6
Continuous
 62
     7
100
AcDbEllipse
 10
219.615986
 20
-153.150036
 30
0.0
 11
0.3999999999999559
 21
1.959591794226554
 31
0.0
210
0.0
220
0.0
230
1.0
 40
0.4082480000000002
 41
3.605240262590535
 42
6.283185307179695
  0
ELLIPSE
  5
661D
330
A
100
AcDbEntity
  8
0
  6
Continuous
 62
     7
100
AcDbEllipse
 10
219.615986
 20
-84.50214200000017
 30
0.0
 11
0.3999999999999559
 21
1.959591794226554
 31
0.0
210
0.0
220
0.0
230
1.0
 40
0.4082480000000002
 41
3.605240262590516
 42
6.283185307179695
  0
ELLIPSE
  5
661E
330
A
100
AcDbEntity
  8
0
  6
Continuous
 62
     7
100
AcDbEllipse
 10
209.24063
 20
-92.97358499999996
 30
0.0
 11
0.3999999999999559
 21
1.959591794226554
 31
0.0
210
0.0
220
0.0
230
1.0
 40
0.4082480000000002
 41
3.605240262590535
 42
6.283185307179695
  0
ELLIPSE
  5
661F
330
A
100
AcDbEntity
  8
0
  6
Continuous
 62
     7
100
AcDbEllipse
 10
209.24063
 20
-161.6214780000001
 30
0.0
 11
0.3999999999999559
 21
1.959591794226554
 31
0.0
210
0.0
220
0.0
230
1.0
 40
0.4082480000000002
 41
3.605240262590535
 42
6.283185307179695
  0
ELLIPSE
  5
6620
330
A
100
AcDbEntity
  8
0
  6
Continuous
 62
     7
100
AcDbEllipse
 10
209.24063
 20
-111.9613
 30
0.0
 11
0.240000000000018
 21
1.175755076535944
 31
0.0
210
0.0
220
0.0
230
1.0
 40
0.4082480000000002
 41
3.605240262590601
 42
6.283185307179584
  0
ELLIPSE
  5
6621
330
A
100
AcDbEntity
  8
0
  6
Continuous
 62
     7
100
AcDbEllipse
 10
209.24063
 20
-142.633763
 30
0.0
 11
0.240000000000018
 21
1.175755076535944
 31
0.0
210
0.0
220
0.0
230
1.0
 40
0.4082480000000002
 41
3.605240262590601
 42
6.283185307179584
  0
ELLIPSE
  5
6622
330
A
100
AcDbEntity
  8
0
  6
Continuous
 62
     7
100
AcDbEllipse
 10
212.550011
 20
-148.3300780000001
 30
0.0
 11
-0.8319999999999437
 21
-4.075950931991256
 31
0.0
210
0.0
220
0.0
230
1.0
 40
0.4082480000000002
 41
0.0000000000000546
 42
0.4636476090008073
  0
ELLIPSE
  5
6623
330
A
100
AcDbEntity
  8
0
  6
Continuous
 62
     7
100
AcDbEllipse
 10
212.550011
 20
-100.8607889999999
 30
0.0
 11
-0.8319999999999437
 21
-4.0759509319912
 31
0.0
210
0.0
220
0.0
230
1.0
 40
0.4082480000000002
 41
0.0000000000000526
 42
0.4636476090007612
  0
ELLIPSE
  5
6624
330
A
100
AcDbEntity
  8
0
  6
Continuous
 62
     7
100
AcDbEllipse
 10
210.8505989999999
 20
-122.3315139999999
 30
0.0
 11
-8.799999999999917
 21
-43.11101947298396
 31
0.0
210
0.0
220
0.0
230
1.0
 40
0.4082480000000001
 41
3.213477539713211
 42
3.997002985119703
  0
LINE
  5
6625
330
A
100
AcDbEntity
  8
0
  6
Continuous
 62
     7
100
AcDbLine
 10
218.3637880000001
 20
-79.07380299999998
 30
0.0
 11
221.941497
 21
-79.80409900000019
 31
0.0
  0
LINE
  5
6626
330
A
100
AcDbEntity
  8
0
  6
Continuous
 62
     7
100
AcDbLine
 10
206.9151200000001
 20
-92.07308499999994
 30
0.0
 11
203.337411
 21
-91.34278800000016
 31
0.0
  0
LINE
  5
6627
330
A
100
AcDbEntity
  8
0
  6
Continuous
 62
     7
100
AcDbLine
 10
203.337411
 20
-165.589225
 30
0.0
 11
206.9151200000001
 21
-166.3195210000002
 31
0.0
  0
LINE
  5
6628
330
A
100
AcDbEntity
  8
0
  6
Continuous
 62
     7
100
AcDbLine
 10
203.337411
 20
-165.589225
 30
0.0
 11
203.337411
 21
-141.779659
 31
0.0
  0
LINE
  5
6629
330
A
100
AcDbEntity
  8
0
  6
Continuous
 62
     7
100
AcDbLine
 10
203.337411
 20
-141.779659
 30
0.0
 11
203.194303
 21
-141.7504469999999
 31
0.0
  0
LINE
  5
662A
330
A
100
AcDbEntity
  8
0
  6
Continuous
 62
     7
100
AcDbLine
 10
203.194303
 20
-141.6579900000001
 30
0.0
 11
203.194303
 21
-141.7504469999999
 31
0.0
  0
LINE
  5
662B
330
A
100
AcDbEntity
  8
0
  6
Continuous
 62
     7
100
AcDbLine
 10
203.337411
 20
-141.6872009999999
 30
0.0
 11
203.194303
 21
-141.6579900000001
 31
0.0
  0
ELLIPSE
  5
662C
330
A
100
AcDbEntity
  8
0
  6
Continuous
 62
     7
100
AcDbEllipse
 10
125.701131
 20
-112.618567
 30
0.0
 11
55.6560868189635
 21
-68.16450689325043
 31
-0.0000000000000035
210
0.0000000000000001
220
0.0
230
0.9999999999999998
 40
0.816497
 41
0.6200653562145259
 42
0.9507309705803706
  0
LINE
  5
662D
330
A
100
AcDbEntity
  8
0
  6
Continuous
 62
     7
100
AcDbLine
 10
203.337411
 20
-115.2448110000001
 30
0.0
 11
203.194303
 21
-115.215599
 31
0.0
  0
LINE
  5
662E
330
A
100
AcDbEntity
  8
0
  6
Continuous
 62
     7
100
AcDbLine
 10
203.194303
 20
-115.215599
 30
0.0
 11
203.194303
 21
-115.123142
 31
0.0
  0
LINE
  5
662F
330
A
100
AcDbEntity
  8
0
  6
Continuous
 62
     7
100
AcDbLine
 10
203.337411
 20
-115.1523540000001
 30
0.0
 11
203.194303
 21
-115.123142
 31
0.0
  0
LINE
  5
6630
330
A
100
AcDbEntity
  8
0
  6
Continuous
 62
     7
100
AcDbLine
 10
203.337411
 20
-115.1523540000001
 30
0.0
 11
203.337411
 21
-91.34278800000016
 31
0.0
  0
ELLIPSE
  5
6631
330
A
100
AcDbEntity
  8
0
  6
Continuous
 62
     7
100
AcDbEllipse
 10
209.24063
 20
-92.97358499999996
 30
0.0
 11
0.3999999999999559
 21
1.959591794226554
 31
-0.0000000000000001
210
0.0
220
0.0000000000000001
230
1.0
 40
0.4082480000000002
 41
3.141592653589901
 42
3.605240262590535
  0
ELLIPSE
  5
6632
330
A
100
AcDbEntity
  8
0
  6
Continuous
 62
     7
100
AcDbEllipse
 10
209.24063
 20
-92.97358499999996
 30
0.0
 11
0.3999999999999559
 21
1.959591794226554
 31
0.0
210
0.0
220
0.0
230
1.0
 40
0.4082480000000002
 41
0.0000000000001088
 42
3.141592653589901
  0
ARC
  5
6633
330
A
100
AcDbEntity
  8
0
  6
Continuous
 62
     7
100
AcDbCircle
 10
195.9850569999998
 20
-91.18023799999996
 30
0.0
 40
5.881833999999997
100
AcDbArc
 50
187.9464610000029
 51
264.9416270000008
  0
LINE
  5
6639
330
A
100
AcDbEntity
  8
0
  6
Continuous
 62
     7
100
AcDbLine
 10
204.0529530000001
 20
-88.27700499999997
 30
0.0
 11
205.175193
 21
-88.50608200000015
 31
0.0
  0
LINE
  5
663A
330
A
100
AcDbEntity
  8
0
  6
Continuous
 62
     7
100
AcDbLine
 10
203.337411
 20
-98.64581699999996
 30
0.0
 11
195.4664520000001
 21
-97.03916399999997
 31
0.0
  0
LINE
  5
663B
330
A
100
AcDbEntity
  8
0
  6
Continuous
 62
     9
100
AcDbLine
 10
195.4664520000001
 20
-97.03916399999997
 30
0.0
 11
195.4664520000001
 21
-104.8774209999999
 31
0.0
  0
LINE
  5
663C
330
A
100
AcDbEntity
  8
0
  6
Continuous
 62
     7
100
AcDbLine
 10
195.4664520000001
 20
-104.8774209999999
 30
0.0
 11
203.337411
 21
-106.484074
 31
0.0
  0
ELLIPSE
  5
663D
330
A
100
AcDbEntity
  8
0
  6
Continuous
 62
     7
100
AcDbEllipse
 10
201.9421050000001
 20
-112.586531
 30
0.0
 11
0.9600000000000717
 21
4.703020306143667
 31
0.0
210
0.0000000000000001
220
0.0
230
1.0
 40
0.4082480000000002
 41
4.228066848002603
 42
4.312824699315982
  0
ELLIPSE
  5
663E
330
A
100
AcDbEntity
  8
0
  6
Continuous
 62
     7
100
AcDbEllipse
 10
211.4766979999999
 20
-100.6417000000001
 30
0.0
 11
-0.8319999999999437
 21
-4.0759509319912
 31
0.0
210
0.0
220
0.0
230
1.0
 40
0.4082480000000002
 41
2.024733993232401
 42
2.813212876231759
  0
ELLIPSE
  5
663F
330
A
100
AcDbEntity
  8
0
  6
Continuous
 62
     7
100
AcDbEllipse
 10
211.4766979999999
 20
-100.6417000000001
 30
0.0
 11
-0.8319999999999437
 21
-4.0759509319912
 31
0.0000000000000003
210
0.0
220
0.0000000000000001
230
1.0
 40
0.4082480000000002
 41
0.4636476090008089
 42
1.116858275766684
  0
ELLIPSE
  5
6640
330
A
100
AcDbEntity
  8
0
  6
Continuous
 62
     7
100
AcDbEllipse
 10
212.550011
 20
-100.8607889999999
 30
0.0
 11
-0.8319999999999437
 21
-4.0759509319912
 31
0.0000000000000003
210
0.0
220
0.0000000000000001
230
1.0
 40
0.4082480000000002
 41
0.4636476090007602
 42
3.141592653589843
  0
ELLIPSE
  5
6641
330
A
100
AcDbEntity
  8
0
  6
Continuous
 62
     7
100
AcDbEllipse
 10
212.550011
 20
-100.8607889999999
 30
0.0
 11
-0.8319999999999437
 21
-4.0759509319912
 31
0.0
210
0.0
220
0.0
230
1.0
 40
0.4082480000000002
 41
3.141592653589843
 42
6.283185307179637
  0
ELLIPSE
  5
6642
330
A
100
AcDbEntity
  8
0
  6
Continuous
 62
     7
100
AcDbEllipse
 10
211.4766979999999
 20
-100.6417000000001
 30
0.0
 11
-0.8319999999999437
 21
-4.0759509319912
 31
0.0
210
0.0
220
0.0
230
1.0
 40
0.4082480000000002
 41
0.3283797773426342
 42
0.4636476090008098
  0
ELLIPSE
  5
6643
330
A
100
AcDbEntity
  8
0
  6
Continuous
 62
     7
100
AcDbEllipse
 10
199.759702
 20
-101.3719969999999
 30
0.0
 11
-9.600000000000052
 21
0.0
 31
0.0
210
0.0
220
0.0
230
1.0
 40
0.4082480000000002
 41
0.0
 42
1.107148717794085
  0
ARC
  5
6644
330
A
100
AcDbEntity
  8
0
  6
Continuous
 62
     7
100
AcDbCircle
 10
193.491238
 20
-92.00046399999996
 30
0.0
 40
3.331542999999998
100
AcDbArc
 50
134.0897810000025
 51
179.8783150000011
  0
ELLIPSE
  5
6645
330
A
100
AcDbEntity
  8
0
  6
Continuous
 62
     7
100
AcDbEllipse
 10
209.24063
 20
-111.9613
 30
0.0
 11
0.240000000000018
 21
1.175755076535944
 31
0.0
210
0.0
220
0.0
230
1.0
 40
0.4082480000000002
 41
3.141592653589792
 42
3.605240262590601
  0
ELLIPSE
  5
6646
330
A
100
AcDbEntity
  8
0
  6
Continuous
 62
     7
100
AcDbEllipse
 10
209.24063
 20
-111.9613
 30
0.0
 11
0.240000000000018
 21
1.175755076535944
 31
-0.0000000000000001
210
0.0
220
0.0000000000000001
230
1.0
 40
0.4082480000000002
 41
6.283185307179584
 42
9.424777960769381
  0
ELLIPSE
  5
6647
330
A
100
AcDbEntity
  8
0
  6
Continuous
 62
     7
100
AcDbEllipse
 10
219.615986
 20
-84.50214200000017
 30
0.0
 11
0.3999999999999559
 21
1.959591794226554
 31
0.0
210
0.0
220
0.0
230
1.0
 40
0.4082480000000002
 41
3.141592653589901
 42
3.605240262590516
  0
ELLIPSE
  5
6648
330
A
100
AcDbEntity
  8
0
  6
Continuous
 62
     7
100
AcDbEllipse
 10
219.615986
 20
-84.50214200000017
 30
0.0
 11
0.3999999999999559
 21
1.959591794226554
 31
-0.0000000000000001
210
0.0
220
0.0000000000000001
230
1.0
 40
0.4082480000000002
 41
0.0000000000001088
 42
3.141592653589901
  0
LINE
  5
6649
330
A
100
AcDbEntity
  8
0
  6
Continuous
 62
     7
100
AcDbLine
 10
203.3658379999999
 20
-141.5179320000001
 30
0.0
 11
203.194303
 21
-141.6579900000001
 31
0.0
  0
ELLIPSE
  5
664A
330
A
100
AcDbEntity
  8
0
  6
Continuous
 62
     7
100
AcDbEllipse
 10
201.9421050000001
 20
-146.331889
 30
0.0
 11
-0.960000000000072
 21
-4.703020306143722
 31
0.0
210
0.0
220
0.0
230
1.0
 40
0.4082480000000002
 41
2.896185741016042
 42
2.98241367717866
  0
ELLIPSE
  5
664B
330
A
100
AcDbEntity
  8
0
  6
Continuous
 62
     7
100
AcDbEllipse
 10
209.24063
 20
-142.633763
 30
0.0
 11
0.240000000000018
 21
1.175755076535944
 31
-0.0000000000000001
210
0.0
220
0.0000000000000001
230
1.0
 40
0.4082480000000002
 41
3.141592653589783
 42
3.605240262590601
  0
ELLIPSE
  5
664C
330
A
100
AcDbEntity
  8
0
  6
Continuous
 62
     7
100
AcDbEllipse
 10
209.24063
 20
-142.633763
 30
0.0
 11
0.240000000000018
 21
1.175755076535944
 31
0.0
210
0.0
220
0.0
230
1.0
 40
0.4082480000000002
 41
6.283185307179584
 42
9.424777960769366
  0
LINE
  5
664D
330
A
100
AcDbEntity
  8
0
  6
Continuous
 62
     9
100
AcDbLine
 10
195.4664520000001
 20
-145.920098
 30
0.0
 11
195.4664520000001
 21
-153.7583559999999
 31
0.0
  0
LINE
  5
664E
330
A
100
AcDbEntity
  8
0
  6
Continuous
 62
     7
100
AcDbLine
 10
203.337411
 20
-147.526751
 30
0.0
 11
195.4664520000001
 21
-145.920098
 31
0.0
  0
LINE
  5
664F
330
A
100
AcDbEntity
  8
0
  6
Continuous
 62
     7
100
AcDbLine
 10
195.4664520000001
 20
-153.7583559999999
 30
0.0
 11
203.337411
 21
-155.365008
 31
0.0
  0
ELLIPSE
  5
6650
330
A
100
AcDbEntity
  8
0
  6
Continuous
 62
     7
100
AcDbEllipse
 10
199.759702
 20
-142.414674
 30
0.0
 11
9.600000000000052
 21
0.0
 31
0.0
210
0.0
220
0.0
230
1.0
 40
0.4082480000000002
 41
3.665478914817521
 42
4.248741371383879
  0
ELLIPSE
  5
6651
330
A
100
AcDbEntity
  8
0
  6
Continuous
 62
     7
100
AcDbEllipse
 10
211.4766979999999
 20
-148.1109889999999
 30
0.0
 11
-0.8319999999999437
 21
-4.0759509319912
 31
0.0
210
0.0
220
0.0
230
1.0
 40
0.4082480000000002
 41
2.024734113958738
 42
2.813212876301935
  0
ELLIPSE
  5
6652
330
A
100
AcDbEntity
  8
0
  6
Continuous
 62
     7
100
AcDbEllipse
 10
211.4766979999999
 20
-148.1109889999999
 30
0.0
 11
-0.8319999999999437
 21
-4.0759509319912
 31
0.0
210
0.0
220
0.0
230
1.0
 40
0.4082480000000002
 41
0.4636476090008089
 42
1.11685816770434
  0
ELLIPSE
  5
6653
330
A
100
AcDbEntity
  8
0
  6
Continuous
 62
     7
100
AcDbEllipse
 10
212.550011
 20
-148.3300780000001
 30
0.0
 11
-0.8319999999999437
 21
-4.075950931991256
 31
0.0000000000000003
210
0.0
220
0.0000000000000001
230
1.0
 40
0.4082480000000002
 41
0.4636476090008061
 42
3.141592653589841
  0
ELLIPSE
  5
6654
330
A
100
AcDbEntity
  8
0
  6
Continuous
 62
     7
100
AcDbEllipse
 10
212.550011
 20
-148.3300780000001
 30
0.0
 11
-0.8319999999999437
 21
-4.075950931991256
 31
0.0
210
0.0
220
0.0
230
1.0
 40
0.4082480000000002
 41
3.141592653589841
 42
6.283185307179637
  0
ELLIPSE
  5
6655
330
A
100
AcDbEntity
  8
0
  6
Continuous
 62
     7
100
AcDbEllipse
 10
211.4766979999999
 20
-148.1109889999999
 30
0.0
 11
-0.8319999999999437
 21
-4.0759509319912
 31
0.0
210
0.0
220
0.0
230
1.0
 40
0.4082480000000002
 41
0.3283797772878562
 42
0.4636476090008098
  0
ELLIPSE
  5
6656
330
A
100
AcDbEntity
  8
0
  6
Continuous
 62
     7
100
AcDbEllipse
 10
209.24063
 20
-161.6214780000001
 30
0.0
 11
0.3999999999999559
 21
1.959591794226554
 31
-0.0000000000000001
210
0.0
220
0.0000000000000001
230
1.0
 40
0.4082480000000002
 41
3.141592653589786
 42
3.605240262590535
  0
ELLIPSE
  5
6657
330
A
100
AcDbEntity
  8
0
  6
Continuous
 62
     7
100
AcDbEllipse
 10
209.24063
 20
-161.6214780000001
 30
0.0
 11
0.3999999999999559
 21
1.959591794226554
 31
-0.0000000000000001
210
0.0
220
0.0000000000000001
230
1.0
 40
0.4082480000000002
 41
0.0000000000001088
 42
3.141592653589786
  0
ELLIPSE
  5
665F
330
A
100
AcDbEntity
  8
0
  6
Continuous
 62
     7
100
AcDbEllipse
 10
219.615986
 20
-153.150036
 30
0.0
 11
0.3999999999999559
 21
1.959591794226554
 31
0.0
210
0.0
220
0.0
230
1.0
 40
0.4082480000000002
 41
3.141592653589901
 42
3.605240262590535
  0
ELLIPSE
  5
6660
330
A
100
AcDbEntity
  8
0
  6
Continuous
 62
     7
100
AcDbEllipse
 10
219.615986
 20
-153.150036
 30
0.0
 11
0.3999999999999559
 21
1.959591794226554
 31
0.0
210
0.0
220
0.0
230
1.0
 40
0.4082480000000002
 41
0.0000000000001088
 42
3.141592653589901
  0
LINE
  5
6661
330
A
100
AcDbEntity
  8
0
  6
Continuous
 62
     9
100
AcDbLine
 10
190.6426200000001
 20
-126.731206
 30
0.0
 11
190.6426200000001
 21
-124.462718
 31
0.0
  0
LINE
  5
6662
330
A
100
AcDbEntity
  8
0
  6
Continuous
 62
     7
100
AcDbLine
 10
190.6426200000001
 20
-124.462718
 30
0.0
 11
198.8034149999998
 21
-106.5312339999999
 31
0.0
  0
ELLIPSE
  5
6669
330
A
100
AcDbEntity
  8
0
  6
Continuous
 62
     7
100
AcDbEllipse
 10
196.6290760000001
 20
-100.1671150000001
 30
0.0
 11
14.39999999999996
 21
0.0
 31
0.0
210
0.0
220
0.0
230
1.0
 40
0.4082480000000002
 41
4.951973505455648
 42
4.967296980105863
  0
ELLIPSE
  5
666A
330
A
100
AcDbEntity
  8
0
  6
Continuous
 62
     7
100
AcDbEllipse
 10
196.6290760000001
 20
-140.3334360000003
 30
0.0
 11
-14.39999999999996
 21
0.0
 31
0.0
210
0.0
220
0.0
230
1.0
 40
0.4082480000000002
 41
1.810380851865856
 42
2.055398787206108
  0
LINE
  5
666B
330
A
100
AcDbEntity
  8
0
  6
Continuous
 62
     7
100
AcDbLine
 10
200.046182
 20
-146.0442940000001
 30
0.0
 11
199.4933680000001
 21
-146.017651
 31
0.0
  0
ARC
  5
666C
330
A
100
AcDbEntity
  8
0
  6
Continuous
 62
     7
100
AcDbCircle
 10
398.4310420000002
 20
-48.02037199999995
 30
0.0
 40
222.196813
100
AcDbArc
 50
200.7468269999996
 51
206.0479260000005
  0
ARC
  5
666D
330
A
100
AcDbEntity
  8
0
  6
Continuous
 62
     7
100
AcDbCircle
 10
185.599056
 20
-112.058849
 30
0.0
 40
58.737128
100
AcDbArc
 50
160.5790850000021
 51
199.4209149999978
  0
LINE
  5
666E
330
A
100
AcDbEntity
  8
0
  6
Continuous
 62
     9
100
AcDbLine
 10
198.8034149999998
 20
-106.5312339999999
 30
0.0
 11
130.2039920000002
 21
-92.52843600000018
 31
0.0
  0
ELLIPSE
  5
666F
330
A
100
AcDbEntity
  8
0
  6
Continuous
 62
     7
100
AcDbEllipse
 10
2483.716648
 20
-553.506421
 30
0.0
 11
2293.256774294083
 21
-428.4515797725585
 31
0.0
210
0.0
220
0.0
230
1.0
 40
0.033849
 41
3.133796824208883
 42
3.16203644284322
  0
LINE
  5
6670
330
A
100
AcDbEntity
  8
0
  6
Continuous
 62
     9
100
AcDbLine
 10
130.2039920000002
 20
-131.5892610000001
 30
0.0
 11
198.8034149999998
 21
-145.5920599999999
 31
0.0
  0
LINE
  5
6671
330
A
100
AcDbEntity
  8
0
  6
Continuous
 62
     9
100
AcDbLine
 10
196.175606
 20
-105.0878950000001
 30
0.0
 11
200.046182
 21
-105.8779730000001
 31
0.0
  0
ELLIPSE
  5
6672
330
A
100
AcDbEntity
  8
0
  6
Continuous
 62
     7
100
AcDbEllipse
 10
199.133472
 20
-101.7737679999999
 30
0.0
 11
8.639999999999981
 21
0.0
 31
-0.0000000000000006
210
0.0000000000000001
220
0.0
230
1.0
 40
0.4082480000000002
 41
3.605240262590581
 42
4.1345058796564
  0
LINE
  5
6673
330
A
100
AcDbEntity
  8
0
  6
Continuous
 62
     9
100
AcDbLine
 10
130.6766850000001
 20
-91.717984
 30
0.0
 11
194.4138540000001
 21
-104.728279
 31
0.0
  0
LINE
  5
6674
330
A
100
AcDbEntity
  8
0
  6
Continuous
 62
     7
100
AcDbLine
 10
130.6766850000001
 20
-91.717984
 30
0.0
 11
139.8819889999999
 21
-84.20188399999995
 31
0.0
  0
LINE
  5
6675
330
A
100
AcDbEntity
  8
0
  6
Continuous
 62
     7
100
AcDbLine
 10
190.159702
 20
-94.46477900000013
 30
0.0
 11
139.8819889999999
 21
-84.20188399999995
 31
0.0
  0
ELLIPSE
  5
6676
330
A
100
AcDbEntity
  8
0
  6
Continuous
 62
     7
100
AcDbEllipse
 10
199.133472
 20
-101.7737679999999
 30
0.0
 11
8.639999999999981
 21
0.0
 31
-0.0000000000000006
210
0.0000000000000001
220
0.0
230
1.0
 40
0.4082480000000002
 41
4.362976863111335
 42
4.464483414301771
  0
ELLIPSE
  5
6677
330
A
100
AcDbEntity
  8
0
  6
Continuous
 62
     7
100
AcDbEllipse
 10
199.133472
 20
-101.7737679999999
 30
0.0
 11
8.639999999999981
 21
0.0
 31
-0.0000000000000006
210
0.0000000000000001
220
0.0
230
1.0
 40
0.4082480000000002
 41
3.504193041598178
 42
3.605240262590581
  0
LINE
  5
6678
330
A
100
AcDbEntity
  8
0
  6
Continuous
 62
     7
100
AcDbLine
 10
194.4138540000001
 20
-104.728279
 30
0.0
 11
196.175606
 21
-105.0878950000001
 31
0.0
  0
ELLIPSE
  5
6679
330
A
100
AcDbEntity
  8
0
  6
Continuous
 62
     7
100
AcDbEllipse
 10
199.133472
 20
-101.992857
 30
0.0
 11
-8.400000000000185
 21
0.0
 31
0.0
210
0.0
220
0.0
230
1.0
 40
0.4082480000000002
 41
0.3623993130138393
 42
0.4352736305588989
  0
ARC
  5
667A
330
A
100
AcDbEntity
  8
0
  6
Continuous
 62
     7
100
AcDbCircle
 10
132.1778260000001
 20
-93.136592
 30
0.0
 40
2.065399
100
AcDbArc
 50
136.6191630000042
 51
162.8754649999972
  0
LINE
  5
669A
330
A
100
AcDbEntity
  8
0
  6
Continuous
 62
     7
100
AcDbLine
 10
150.783551
 20
-86.01010700000017
 30
0.0
 11
150.7326989999999
 21
-86.05162699999993
 31
0.0
  0
ARC
  5
669B
330
A
100
AcDbEntity
  8
0
  6
Continuous
 62
     7
100
AcDbCircle
 10
208.0887170000001
 20
-111.7261669999999
 30
0.0
 40
1.228077
100
AcDbArc
 50
302.0802079999942
 51
34.84667700000326
  0
ARC
  5
669C
330
A
100
AcDbEntity
  8
0
  6
Continuous
 62
     7
100
AcDbCircle
 10
208.087137
 20
-142.3972630000003
 30
0.0
 40
1.230075999999999
100
AcDbArc
 50
302.1121419999937
 51
30.92297600000034
  0
LINE
  5
669D
330
A
100
AcDbEntity
  8
0
  6
Continuous
 62
     7
100
AcDbLine
 10
209.1423690000001
 20
-141.765145
 30
0.0
 11
209.096685
 21
-141.6970730000001
 31
0.0
  0
LINE
  5
669E
330
A
100
AcDbEntity
  8
0
  6
Continuous
 62
     7
100
AcDbLine
 10
190.159702
 20
-91.99360099999996
 30
0.0
 11
190.159702
 21
-101.3719969999999
 31
0.0
  0
LINE
  5
669F
330
A
100
AcDbEntity
  8
0
  6
Continuous
 62
     7
100
AcDbLine
 10
190.159702
 20
-144.1124240000001
 30
0.0
 11
190.159702
 21
-151.7931800000001
 31
0.0
  0
LINE
  5
66A0
330
A
100
AcDbEntity
  8
0
  6
Continuous
 62
     7
100
AcDbLine
 10
130.4989110000001
 20
-131.934216
 30
0.0
 11
199.4933739999999
 21
-146.0176519999998
 31
0.0
  0
LINE
  5
66A1
330
A
100
AcDbEntity
  8
0
  6
Continuous
 62
     7
100
AcDbLine
 10
80.01742399999988
 20
22.99999999999977
 30
0.0
 11
80.01742399999988
 21
21.68403999999998
 31
0.0
  0
LINE
  5
66A2
330
A
100
AcDbEntity
  8
0
  6
Continuous
 62
     7
100
AcDbLine
 10
80.01742399999988
 20
21.68403999999998
 30
0.0
 11
80.01742399999988
 21
18.99999999999977
 31
0.0
  0
LINE
  5
66A3
330
A
100
AcDbEntity
  8
0
  6
Continuous
 62
     7
100
AcDbLine
 10
80.01742399999988
 20
-19.00000000000011
 30
0.0
 11
80.01742399999988
 21
-23.00000000000011
 31
0.0
  0
LINE
  5
66A4
330
A
100
AcDbEntity
  8
0
  6
Continuous
 62
     7
100
AcDbLine
 10
86.0
 20
55.0
 30
0.0
 11
86.0
 21
50.83305999999982
 31
0.0
  0
LINE
  5
66A5
330
A
100
AcDbEntity
  8
0
  6
Continuous
 62
     7
100
AcDbLine
 10
81.0
 20
50.83305999999982
 30
0.0
 11
81.0
 21
55.0
 31
0.0
  0
LINE
  5
66A6
330
A
100
AcDbEntity
  8
0
  6
Continuous
 62
     7
100
AcDbLine
 10
86.0
 20
50.83305999999982
 30
0.0
 11
81.0
 21
50.83305999999982
 31
0.0
  0
LINE
  5
66A7
330
A
100
AcDbEntity
  8
0
  6
Continuous
 62
     7
100
AcDbLine
 10
81.0
 20
-50.83305999999993
 30
0.0
 11
86.0
 21
-50.83305999999993
 31
0.0
  0
LINE
  5
66A8
330
A
100
AcDbEntity
  8
0
  6
Continuous
 62
     7
100
AcDbLine
 10
81.0
 20
-50.83305999999993
 30
0.0
 11
81.0
 21
-18.23046999999997
 31
0.0
  0
LINE
  5
66A9
330
A
100
AcDbEntity
  8
0
  6
Continuous
 62
     7
100
AcDbLine
 10
81.0
 20
-18.23046999999997
 30
0.0
 11
80.80000000000017
 21
-18.23046999999997
 31
0.0
  0
LINE
  5
66AA
330
A
100
AcDbEntity
  8
0
  6
Continuous
 62
     7
100
AcDbLine
 10
80.80000000000017
 20
-18.10386700000014
 30
0.0
 11
80.80000000000017
 21
-18.23046999999997
 31
0.0
  0
LINE
  5
66AB
330
A
100
AcDbEntity
  8
0
  6
Continuous
 62
     7
100
AcDbLine
 10
81.0
 20
-18.10386700000014
 30
0.0
 11
80.80000000000017
 21
-18.10386700000014
 31
0.0
  0
ARC
  5
66AC
330
A
100
AcDbEntity
  8
0
  6
Continuous
 62
     7
100
AcDbCircle
 10
-27.5
 20
0.0
 30
0.0
 40
110.0
100
AcDbArc
 50
350.5271280000024
 51
9.472871999997659
  0
LINE
  5
66AD
330
A
100
AcDbEntity
  8
0
  6
Continuous
 62
     7
100
AcDbLine
 10
81.0
 20
18.10386700000004
 30
0.0
 11
80.80000000000017
 21
18.10386700000004
 31
0.0
  0
LINE
  5
66AE
330
A
100
AcDbEntity
  8
0
  6
Continuous
 62
     7
100
AcDbLine
 10
80.80000000000017
 20
18.10386700000004
 30
0.0
 11
80.80000000000017
 21
18.23046999999974
 31
0.0
  0
LINE
  5
66AF
330
A
100
AcDbEntity
  8
0
  6
Continuous
 62
     7
100
AcDbLine
 10
81.0
 20
18.23046999999974
 30
0.0
 11
80.80000000000017
 21
18.23046999999974
 31
0.0
  0
LINE
  5
66B0
330
A
100
AcDbEntity
  8
0
  6
Continuous
 62
     7
100
AcDbLine
 10
81.0
 20
18.23046999999974
 30
0.0
 11
81.0
 21
50.83305999999982
 31
0.0
  0
LINE
  5
66B1
330
A
100
AcDbEntity
  8
0
  6
Continuous
 62
     7
100
AcDbLine
 10
86.0
 20
50.83305999999982
 30
0.0
 11
86.0
 21
-50.83305999999993
 31
0.0
  0
LINE
  5
66B2
330
A
100
AcDbEntity
  8
0
  6
Continuous
 62
     9
100
AcDbLine
 10
81.0
 20
23.10386700000004
 30
0.0
 11
80.80000000000017
 21
23.10386700000004
 31
0.0
  0
LINE
  5
66B3
330
A
100
AcDbEntity
  8
0
  6
Continuous
 62
     7
100
AcDbLine
 10
80.80000000000017
 20
23.10386700000004
 30
0.0
 11
80.80000000000017
 21
18.23046999999974
 31
0.0
  0
LINE
  5
66B4
330
A
100
AcDbEntity
  8
0
  6
Continuous
 62
     9
100
AcDbLine
 10
81.0
 20
-23.10386700000004
 30
0.0
 11
80.80000000000017
 21
-23.10386700000004
 31
0.0
  0
LINE
  5
66B5
330
A
100
AcDbEntity
  8
0
  6
Continuous
 62
     7
100
AcDbLine
 10
80.80000000000017
 20
-23.10386700000004
 30
0.0
 11
80.80000000000017
 21
-18.23046999999997
 31
0.0
  0
LINE
  5
66B6
330
A
100
AcDbEntity
  8
0
  6
Continuous
 62
     7
100
AcDbLine
 10
81.0
 20
-55.0
 30
0.0
 11
81.0
 21
-50.83305999999993
 31
0.0
  0
LINE
  5
66B7
330
A
100
AcDbEntity
  8
0
  6
Continuous
 62
     7
100
AcDbLine
 10
86.0
 20
-50.83305999999993
 30
0.0
 11
86.0
 21
-55.0
 31
0.0
  0
LINE
  5
66C1
330
A
100
AcDbEntity
  8
0
  6
Continuous
 62
     9
100
AcDbLine
 10
79.5
 20
38.83297600000003
 30
0.0
 11
79.5
 21
42.0
 31
0.0
  0
ARC
  5
66C2
330
A
100
AcDbEntity
  8
0
  6
Continuous
 62
     7
100
AcDbCircle
 10
79.5
 20
26.60000000000002
 30
0.0
 40
1.5
100
AcDbArc
 50
0.0
 51
90.0
  0
LINE
  5
66C3
330
A
100
AcDbEntity
  8
0
  6
Continuous
 62
     9
100
AcDbLine
 10
79.5
 20
28.10000000000002
 30
0.0
 11
79.5
 21
38.83297600000003
 31
0.0
  0
LINE
  5
66CE
330
A
100
AcDbEntity
  8
0
  6
Continuous
 62
     9
100
AcDbLine
 10
79.5
 20
-38.83297600000015
 30
0.0
 11
79.5
 21
-28.10000000000025
 31
0.0
  0
ARC
  5
66CF
330
A
100
AcDbEntity
  8
0
  6
Continuous
 62
     7
100
AcDbCircle
 10
79.5
 20
-26.60000000000002
 30
0.0
 40
1.5
100
AcDbArc
 50
270.0
 51
0.0
  0
LINE
  5
66D0
330
A
100
AcDbEntity
  8
0
  6
Continuous
 62
     9
100
AcDbLine
 10
79.5
 20
-42.0
 30
0.0
 11
79.5
 21
-38.83297600000015
 31
0.0
  0
LINE
  5
66D1
330
A
100
AcDbEntity
  8
0
  6
Continuous
 62
     7
100
AcDbLine
 10
81.0
 20
26.60000000000002
 30
0.0
 11
80.80000000000017
 21
26.60000000000002
 31
0.0
  0
LINE
  5
66D2
330
A
100
AcDbEntity
  8
0
  6
Continuous
 62
     7
100
AcDbLine
 10
80.80000000000017
 20
23.10386700000004
 30
0.0
 11
80.80000000000017
 21
26.60000000000002
 31
0.0
  0
LINE
  5
66D3
330
A
100
AcDbEntity
  8
0
  6
Continuous
 62
     7
100
AcDbLine
 10
81.0
 20
-26.60000000000002
 30
0.0
 11
80.80000000000017
 21
-26.60000000000002
 31
0.0
  0
LINE
  5
66D4
330
A
100
AcDbEntity
  8
0
  6
Continuous
 62
     7
100
AcDbLine
 10
80.80000000000017
 20
-23.10386700000004
 30
0.0
 11
80.80000000000017
 21
-26.60000000000002
 31
0.0
  0
LINE
  5
66D5
330
A
100
AcDbEntity
  8
0
  6
Continuous
 62
     7
100
AcDbLine
 10
56.0
 20
28.10000000000002
 30
0.0
 11
68.0
 21
28.10000000000002
 31
0.0
  0
LINE
  5
66D6
330
A
100
AcDbEntity
  8
0
  6
Continuous
 62
     7
100
AcDbLine
 10
56.0
 20
41.8090900000002
 30
0.0
 11
56.0
 21
28.10000000000002
 31
0.0
  0
LINE
  5
66DD
330
A
100
AcDbEntity
  8
0
  6
Continuous
 62
     9
100
AcDbLine
 10
68.0
 20
38.83297600000003
 30
0.0
 11
68.0
 21
28.10000000000002
 31
0.0
  0
LINE
  5
66E4
330
A
100
AcDbEntity
  8
0
  6
Continuous
 62
     7
100
AcDbLine
 10
79.5
 20
38.83297600000003
 30
0.0
 11
68.0
 21
38.83297600000003
 31
0.0
  0
LINE
  5
66E5
330
A
100
AcDbEntity
  8
0
  6
Continuous
 62
     7
100
AcDbLine
 10
68.0
 20
28.10000000000002
 30
0.0
 11
79.5
 21
28.10000000000002
 31
0.0
  0
LINE
  5
66E6
330
A
100
AcDbEntity
  8
0
  6
Continuous
 62
     7
100
AcDbLine
 10
68.0
 20
-28.10000000000025
 30
0.0
 11
56.0
 21
-28.10000000000025
 31
0.0
  0
LINE
  5
66E7
330
A
100
AcDbEntity
  8
0
  6
Continuous
 62
     9
100
AcDbLine
 10
68.0
 20
-28.10000000000025
 30
0.0
 11
68.0
 21
-38.83297600000015
 31
0.0
  0
LINE
  5
66EE
330
A
100
AcDbEntity
  8
0
  6
Continuous
 62
     7
100
AcDbLine
 10
56.0
 20
-28.10000000000025
 30
0.0
 11
56.0
 21
-41.8090900000002
 31
0.0
  0
LINE
  5
66EF
330
A
100
AcDbEntity
  8
0
  6
Continuous
 62
     7
100
AcDbLine
 10
79.5
 20
-28.10000000000025
 30
0.0
 11
68.0
 21
-28.10000000000025
 31
0.0
  0
LINE
  5
66F0
330
A
100
AcDbEntity
  8
0
  6
Continuous
 62
     7
100
AcDbLine
 10
68.0
 20
-38.83297600000015
 30
0.0
 11
79.5
 21
-38.83297600000015
 31
0.0
  0
LINE
  5
66FD
330
A
100
AcDbEntity
  8
0
  6
Continuous
 62
     9
100
AcDbLine
 10
-25.94999999999982
 20
12.999999
 30
0.0
 11
-25.94999999999982
 21
8.30803000000003
 31
0.0
  0
LINE
  5
66FE
330
A
100
AcDbEntity
  8
0
  6
Continuous
 62
     9
100
AcDbLine
 10
-25.94999999999982
 20
-8.302180000000021
 30
0.0
 11
-25.94999999999982
 21
-13.0
 31
0.0
  0
LINE
  5
66FF
330
A
100
AcDbEntity
  8
0
  6
Continuous
 62
     7
100
AcDbLine
 10
-26.25
 20
-12.70000000000038
 30
0.0
 11
-26.25
 21
0.0098920000000362
 31
0.0
  0
LINE
  5
6700
330
A
100
AcDbEntity
  8
0
  6
Continuous
 62
     7
100
AcDbLine
 10
-26.25
 20
0.0098920000000362
 30
0.0
 11
-26.25
 21
12.69999900000016
 31
0.0
  0
LINE
  5
6701
330
A
100
AcDbEntity
  8
0
  6
Continuous
 62
     7
100
AcDbLine
 10
74.65000000000009
 20
28.0
 30
0.0
 11
59.85000000000013
 21
28.0
 31
0.0
  0
LINE
  5
6702
330
A
100
AcDbEntity
  8
0
  6
Continuous
 62
     7
100
AcDbLine
 10
59.85000000000013
 20
-28.0
 30
0.0
 11
64.30081399999995
 21
-28.0
 31
0.0
  0
LINE
  5
6703
330
A
100
AcDbEntity
  8
0
  6
Continuous
 62
     7
100
AcDbLine
 10
64.30081399999995
 20
-28.0
 30
0.0
 11
74.65000000000009
 21
-28.0
 31
0.0
  0
LINE
  5
6704
330
A
100
AcDbEntity
  8
0
  6
Continuous
 62
     9
100
AcDbLine
 10
62.878191
 20
-1.553126999999904
 30
0.0
 11
62.878191
 21
1.553126999999789
 31
0.0
  0
ELLIPSE
  5
6705
330
A
100
AcDbEntity
  8
0
  6
Continuous
 62
     7
100
AcDbEllipse
 10
3212.552051999999
 20
0.0
 30
0.0
 11
3149.987861120723
 21
-0.0000000000007772
 31
0.0
210
0.0
220
0.0
230
1.0
 40
0.034921
 41
3.127472844272627
 42
3.15571246290696
  0
ARC
  5
6706
330
A
100
AcDbEntity
  8
0
  6
Continuous
 62
     7
100
AcDbCircle
 10
93.75
 20
0.0
 30
0.0
 40
120.0
100
AcDbArc
 50
167.1229690000003
 51
192.8770309999997
  0
LINE
  5
6707
330
A
100
AcDbEntity
  8
0
  6
Continuous
 62
     9
100
AcDbLine
 10
72.63853299999983
 20
26.74311900000021
 30
0.0
 11
-23.23207400000001
 21
26.74311900000021
 31
0.0
  0
ARC
  5
6708
330
A
100
AcDbEntity
  8
0
  6
Continuous
 62
     7
100
AcDbCircle
 10
-527.1111449999998
 20
244.641658
 30
0.0
 40
638.1061429999999
100
AcDbArc
 50
337.6072659999979
 51
340.0331170000014
  0
ARC
  5
6709
330
A
100
AcDbEntity
  8
0
  6
Continuous
 62
     7
100
AcDbCircle
 10
-524.6698740000002
 20
-243.695741
 30
0.0
 40
635.4886099999998
100
AcDbArc
 50
19.96188700000258
 51
22.39773100000212
  0
LINE
  5
670A
330
A
100
AcDbEntity
  8
0
  6
Continuous
 62
     9
100
AcDbLine
 10
-23.23207400000001
 20
-26.74311900000021
 30
0.0
 11
72.63853299999983
 21
-26.74311900000021
 31
0.0
  0
LINE
  5
6727
330
A
100
AcDbEntity
  8
0
  6
Continuous
 62
     7
100
AcDbLine
 10
78.75
 20
27.5
 30
0.0
 11
73.890355
 21
27.5
 31
0.0
  0
LINE
  5
6728
330
A
100
AcDbEntity
  8
0
  6
Continuous
 62
     7
100
AcDbLine
 10
78.75
 20
-27.5
 30
0.0
 11
78.75
 21
27.5
 31
0.0
  0
LINE
  5
6729
330
A
100
AcDbEntity
  8
0
  6
Continuous
 62
     7
100
AcDbLine
 10
73.890355
 20
-27.5
 30
0.0
 11
78.75
 21
-27.5
 31
0.0
  0
LINE
  5
6734
330
A
100
AcDbEntity
  8
0
  6
Continuous
 62
     7
100
AcDbLine
 10
-23.056464
 20
27.5
 30
0.0
 11
66.01893799999993
 21
27.5
 31
0.0
  0
LINE
  5
6735
330
A
100
AcDbEntity
  8
0
  6
Continuous
 62
     7
100
AcDbLine
 10
66.01893799999993
 20
27.5
 30
0.0
 11
68.48106099999995
 21
27.5
 31
0.0
  0
LINE
  5
6736
330
A
100
AcDbEntity
  8
0
  6
Continuous
 62
     7
100
AcDbLine
 10
68.48106099999995
 20
27.5
 30
0.0
 11
73.890355
 21
27.5
 31
0.0
  0
LINE
  5
6737
330
A
100
AcDbEntity
  8
0
  6
Continuous
 62
     7
100
AcDbLine
 10
-23.23207400000001
 20
26.74311900000021
 30
0.0
 11
-23.056464
 21
27.5
 31
0.0
  0
LINE
  5
6738
330
A
100
AcDbEntity
  8
0
  6
Continuous
 62
     7
100
AcDbLine
 10
68.48106099999995
 20
-27.5
 30
0.0
 11
66.01893799999993
 21
-27.5
 31
0.0
  0
LINE
  5
6739
330
A
100
AcDbEntity
  8
0
  6
Continuous
 62
     7
100
AcDbLine
 10
66.01893799999993
 20
-27.5
 30
0.0
 11
-23.056464
 21
-27.5
 31
0.0
  0
LINE
  5
673A
330
A
100
AcDbEntity
  8
0
  6
Continuous
 62
     7
100
AcDbLine
 10
73.890355
 20
-27.5
 30
0.0
 11
68.48106099999995
 21
-27.5
 31
0.0
  0
LINE
  5
673B
330
A
100
AcDbEntity
  8
0
  6
Continuous
 62
     7
100
AcDbLine
 10
-23.056464
 20
-27.5
 30
0.0
 11
-23.23207400000001
 21
-26.74311900000021
 31
0.0
  0
LINE
  5
673C
330
A
100
AcDbEntity
  8
0
  6
Continuous
 62
     7
100
AcDbLine
 10
63.25
 20
28.0
 30
0.0
 11
63.25
 21
28.10000000000002
 31
0.0
  0
LINE
  5
673D
330
A
100
AcDbEntity
  8
0
  6
Continuous
 62
     7
100
AcDbLine
 10
71.25
 20
28.0
 30
0.0
 11
71.25
 21
28.10000000000002
 31
0.0
  0
LINE
  5
673E
330
A
100
AcDbEntity
  8
0
  6
Continuous
 62
     7
100
AcDbLine
 10
71.25
 20
-28.0
 30
0.0
 11
71.25
 21
-28.10000000000025
 31
0.0
  0
LINE
  5
673F
330
A
100
AcDbEntity
  8
0
  6
Continuous
 62
     7
100
AcDbLine
 10
63.25
 20
-28.0
 30
0.0
 11
63.25
 21
-28.10000000000025
 31
0.0
  0
ARC
  5
6740
330
A
100
AcDbEntity
  8
0
  6
Continuous
 62
     7
100
AcDbCircle
 10
84.60000000000013
 20
21.0
 30
0.0
 40
5.0
100
AcDbArc
 50
180.0
 51
203.5781779999981
  0
ARC
  5
6741
330
A
100
AcDbEntity
  8
0
  6
Continuous
 62
     7
100
AcDbCircle
 10
84.60000000000013
 20
21.0
 30
0.0
 40
5.0
100
AcDbArc
 50
156.4218220000019
 51
180.0
  0
LINE
  5
6742
330
A
100
AcDbEntity
  8
0
  6
Continuous
 62
     7
100
AcDbLine
 10
80.80000000000017
 20
22.99999999999977
 30
0.0
 11
80.01742399999988
 21
22.99999999999977
 31
0.0
  0
LINE
  5
6743
330
A
100
AcDbEntity
  8
0
  6
Continuous
 62
     7
100
AcDbLine
 10
80.01742399999988
 20
18.99999999999977
 30
0.0
 11
80.80000000000017
 21
18.99999999999977
 31
0.0
  0
ARC
  5
6744
330
A
100
AcDbEntity
  8
0
  6
Continuous
 62
     7
100
AcDbCircle
 10
84.60000000000013
 20
-21.0
 30
0.0
 40
5.0
100
AcDbArc
 50
180.0
 51
203.5781779999981
  0
ARC
  5
6745
330
A
100
AcDbEntity
  8
0
  6
Continuous
 62
     7
100
AcDbCircle
 10
84.60000000000013
 20
-21.0
 30
0.0
 40
5.0
100
AcDbArc
 50
156.4218220000019
 51
180.0
  0
LINE
  5
6746
330
A
100
AcDbEntity
  8
0
  6
Continuous
 62
     7
100
AcDbLine
 10
80.80000000000017
 20
-19.00000000000011
 30
0.0
 11
80.01742399999988
 21
-19.00000000000011
 31
0.0
  0
LINE
  5
6747
330
A
100
AcDbEntity
  8
0
  6
Continuous
 62
     7
100
AcDbLine
 10
80.01742399999988
 20
-23.00000000000011
 30
0.0
 11
80.80000000000017
 21
-23.00000000000011
 31
0.0
  0
LINE
  5
6748
330
A
100
AcDbEntity
  8
0
  6
Continuous
 62
     7
100
AcDbLine
 10
86.0
 20
55.0
 30
0.0
 11
81.0
 21
55.0
 31
0.0
  0
LINE
  5
6749
330
A
100
AcDbEntity
  8
0
  6
Continuous
 62
     7
100
AcDbLine
 10
81.0
 20
-55.0
 30
0.0
 11
86.0
 21
-55.0
 31
0.0
  0
ARC
  5
674A
330
A
100
AcDbEntity
  8
0
  6
Continuous
 62
     7
100
AcDbCircle
 10
79.5
 20
43.5
 30
0.0
 40
1.5
100
AcDbArc
 50
270.0
 51
0.0
  0
ARC
  5
674B
330
A
100
AcDbEntity
  8
0
  6
Continuous
 62
     7
100
AcDbCircle
 10
79.5
 20
-43.5
 30
0.0
 40
1.5
100
AcDbArc
 50
0.0
 51
90.0
  0
LINE
  5
674C
330
A
100
AcDbEntity
  8
0
  6
Continuous
 62
     7
100
AcDbLine
 10
79.5
 20
42.0
 30
0.0
 11
56.68859099999986
 21
42.0
 31
0.0
  0
LINE
  5
674D
330
A
100
AcDbEntity
  8
0
  6
Continuous
 62
     7
100
AcDbLine
 10
56.68915100000003
 20
-42.0
 30
0.0
 11
79.5
 21
-42.0
 31
0.0
  0
LINE
  5
674E
330
A
100
AcDbEntity
  8
0
  6
Continuous
 62
     7
100
AcDbLine
 10
-25.94999999999982
 20
-13.0
 30
0.0
 11
-25.53232099999991
 21
-13.0
 31
0.0
  0
LINE
  5
674F
330
A
100
AcDbEntity
  8
0
  6
Continuous
 62
     7
100
AcDbLine
 10
-25.53493800000001
 20
13.0
 30
0.0
 11
-25.94999999999982
 21
13.0
 31
0.0
  0
ARC
  5
6750
330
A
100
AcDbEntity
  8
0
  6
Continuous
 62
     7
100
AcDbCircle
 10
-25.94999999999982
 20
12.70000000000004
 30
0.0
 40
0.3
100
AcDbArc
 50
90.0
 51
180.0
  0
ARC
  5
6751
330
A
100
AcDbEntity
  8
0
  6
Continuous
 62
     7
100
AcDbCircle
 10
-25.94999999999982
 20
-12.70000000000038
 30
0.0
 40
0.3
100
AcDbArc
 50
180.0
 51
270.0
  0
LINE
  5
6752
330
A
100
AcDbEntity
  8
0
  6
Continuous
 62
     7
100
AcDbLine
 10
76.02373800000009
 20
27.5
 30
0.0
 11
74.65000000000009
 21
28.0
 31
0.0
  0
LINE
  5
6753
330
A
100
AcDbEntity
  8
0
  6
Continuous
 62
     7
100
AcDbLine
 10
59.85000000000013
 20
28.0
 30
0.0
 11
58.47626100000002
 21
27.5
 31
0.0
  0
LINE
  5
6754
330
A
100
AcDbEntity
  8
0
  6
Continuous
 62
     7
100
AcDbLine
 10
58.47626100000002
 20
-27.5
 30
0.0
 11
59.85000000000013
 21
-28.0
 31
0.0
  0
LINE
  5
6755
330
A
100
AcDbEntity
  8
0
  6
Continuous
 62
     7
100
AcDbLine
 10
74.65000000000009
 20
-28.0
 30
0.0
 11
76.02373800000009
 21
-27.5
 31
0.0
  0
TEXT
  5
71D4
330
A
100
AcDbEntity
  8
0
  6
Continuous
 62
     7
370
     0
100
AcDbText
 10
105.165515136164
 20
114.5073206442166
 30
0.0
 40
10.0
  1
8060
100
AcDbText
  0
LINE
  5
71D5
330
A
100
AcDbEntity
  8
0
  6
Continuous
 62
     7
100
AcDbLine
 10
-69.4898270000001
 20
0.596201999999721
 30
0.0
 11
-69.48950599999989
 21
0.5799049999998262
 31
0.0
  0
LINE
  5
71D6
330
A
100
AcDbEntity
  8
0
  6
Continuous
 62
     7
100
AcDbLine
 10
-69.48950599999989
 20
0.5799049999998262
 30
0.0
 11
-69.4868469999999
 21
0.5462669999997161
 31
0.0
  0
LINE
  5
71D7
330
A
100
AcDbEntity
  8
0
  6
Continuous
 62
     7
100
AcDbLine
 10
-69.4868469999999
 20
0.5462669999997161
 30
0.0
 11
-69.481493
 21
0.5121910000000299
 31
0.0
  0
LINE
  5
71D8
330
A
100
AcDbEntity
  8
0
  6
Continuous
 62
     7
100
AcDbLine
 10
-69.481493
 20
0.5121910000000299
 30
0.0
 11
-69.4734719999999
 21
0.4778089999997519
 31
0.0
  0
LINE
  5
71D9
330
A
100
AcDbEntity
  8
0
  6
Continuous
 62
     7
100
AcDbLine
 10
-69.4734719999999
 20
0.4778089999997519
 30
0.0
 11
-69.46270299999992
 21
0.4428159999999936
 31
0.0
  0
LINE
  5
71DA
330
A
100
AcDbEntity
  8
0
  6
Continuous
 62
     7
100
AcDbLine
 10
-69.46270299999992
 20
0.4428159999999936
 30
0.0
 11
-69.44928000000004
 21
0.4075480000000198
 31
0.0
  0
LINE
  5
71DB
330
A
100
AcDbEntity
  8
0
  6
Continuous
 62
     7
100
AcDbLine
 10
-69.44928000000004
 20
0.4075480000000198
 30
0.0
 11
-69.43308400000001
 21
0.3716929999998229
 31
0.0
  0
LINE
  5
71DC
330
A
100
AcDbEntity
  8
0
  6
Continuous
 62
     7
100
AcDbLine
 10
-69.43308400000001
 20
0.3716929999998229
 30
0.0
 11
-69.41427099999987
 21
0.3355929999999034
 31
0.0
  0
LINE
  5
71DD
330
A
100
AcDbEntity
  8
0
  6
Continuous
 62
     7
100
AcDbLine
 10
-69.41427099999987
 20
0.3355929999999034
 30
0.0
 11
-69.39281599999981
 21
0.2991429999999582
 31
0.0
  0
LINE
  5
71DE
330
A
100
AcDbEntity
  8
0
  6
Continuous
 62
     7
100
AcDbLine
 10
-69.39281599999981
 20
0.2991429999999582
 30
0.0
 11
-69.36953599999992
 21
0.2635080000000016
 31
0.0
  0
LINE
  5
71DF
330
A
100
AcDbEntity
  8
0
  6
Continuous
 62
     7
100
AcDbLine
 10
-69.36953599999992
 20
0.2635080000000016
 30
0.0
 11
-69.34383899999989
 21
0.2275759999999991
 31
0.0
  0
LINE
  5
71E0
330
A
100
AcDbEntity
  8
0
  6
Continuous
 62
     7
100
AcDbLine
 10
-69.34383899999989
 20
0.2275759999999991
 30
0.0
 11
-69.31585699999982
 21
0.1914769999997361
 31
0.0
  0
LINE
  5
71E1
330
A
100
AcDbEntity
  8
0
  6
Continuous
 62
     7
100
AcDbLine
 10
-69.31585699999982
 20
0.1914769999997361
 30
0.0
 11
-69.28537800000004
 21
0.1549079999997502
 31
0.0
  0
LINE
  5
71E2
330
A
100
AcDbEntity
  8
0
  6
Continuous
 62
     7
100
AcDbLine
 10
-69.28537800000004
 20
0.1549079999997502
 30
0.0
 11
-69.25270999999998
 21
0.1182019999999966
 31
0.0
  0
LINE
  5
71E3
330
A
100
AcDbEntity
  8
0
  6
Continuous
 62
     7
100
AcDbLine
 10
-69.25270999999998
 20
0.1182019999999966
 30
0.0
 11
-69.2176139999999
 21
0.0810510000000022
 31
0.0
  0
LINE
  5
71E4
330
A
100
AcDbEntity
  8
0
  6
Continuous
 62
     7
100
AcDbLine
 10
-69.2176139999999
 20
0.0810510000000022
 30
0.0
 11
-69.18044699999995
 21
0.0437929999998232
 31
0.0
  0
LINE
  5
71E5
330
A
100
AcDbEntity
  8
0
  6
Continuous
 62
     7
100
AcDbLine
 10
-69.18044699999995
 20
0.0437929999998232
 30
0.0
 11
-69.1411659999999
 21
0.006324999999606
 31
0.0
  0
LINE
  5
71E6
330
A
100
AcDbEntity
  8
0
  6
Continuous
 62
     7
100
AcDbLine
 10
-69.1411659999999
 20
0.006324999999606
 30
0.0
 11
-69.13435299999992
 21
0.0
 31
0.0
  0
LINE
  5
71E7
330
A
100
AcDbEntity
  8
0
  6
Continuous
 62
     7
100
AcDbLine
 10
-69.13435299999992
 20
0.0
 30
0.0
 11
-69.1411659999999
 21
-0.0063249999998334
 31
0.0
  0
LINE
  5
71E8
330
A
100
AcDbEntity
  8
0
  6
Continuous
 62
     7
100
AcDbLine
 10
-69.1411659999999
 20
-0.0063249999998334
 30
0.0
 11
-69.17906800000015
 21
-0.0424469999999246
 31
0.0
  0
LINE
  5
71E9
330
A
100
AcDbEntity
  8
0
  6
Continuous
 62
     7
100
AcDbLine
 10
-69.17906800000015
 20
-0.0424469999999246
 30
0.0
 11
-69.21535500000004
 21
-0.0787299999999505
 31
0.0
  0
LINE
  5
71EA
330
A
100
AcDbEntity
  8
0
  6
Continuous
 62
     7
100
AcDbLine
 10
-69.21535500000004
 20
-0.0787299999999505
 30
0.0
 11
-69.24980299999993
 21
-0.1150420000000167
 31
0.0
  0
LINE
  5
71EB
330
A
100
AcDbEntity
  8
0
  6
Continuous
 62
     7
100
AcDbLine
 10
-69.24980299999993
 20
-0.1150420000000167
 30
0.0
 11
-69.28259099999991
 21
-0.151683999999932
 31
0.0
  0
LINE
  5
71EC
330
A
100
AcDbEntity
  8
0
  6
Continuous
 62
     7
100
AcDbLine
 10
-69.28259099999991
 20
-0.151683999999932
 30
0.0
 11
-69.31331299999988
 21
-0.1883249999999634
 31
0.0
  0
LINE
  5
71ED
330
A
100
AcDbEntity
  8
0
  6
Continuous
 62
     7
100
AcDbLine
 10
-69.31331299999988
 20
-0.1883249999999634
 30
0.0
 11
-69.34211299999993
 21
-0.2252670000002581
 31
0.0
  0
LINE
  5
71EE
330
A
100
AcDbEntity
  8
0
  6
Continuous
 62
     7
100
AcDbLine
 10
-69.34211299999993
 20
-0.2252670000002581
 30
0.0
 11
-69.36862100000006
 21
-0.2621719999999641
 31
0.0
  0
LINE
  5
71EF
330
A
100
AcDbEntity
  8
0
  6
Continuous
 62
     7
100
AcDbLine
 10
-69.36862100000006
 20
-0.2621719999999641
 30
0.0
 11
-69.39281599999981
 21
-0.2991429999999582
 31
0.0
  0
LINE
  5
71F0
330
A
100
AcDbEntity
  8
0
  6
Continuous
 62
     7
100
AcDbLine
 10
-69.39281599999981
 20
-0.2991429999999582
 30
0.0
 11
-69.41351399999985
 21
-0.334234000000265
 31
0.0
  0
LINE
  5
71F1
330
A
100
AcDbEntity
  8
0
  6
Continuous
 62
     7
100
AcDbLine
 10
-69.41351399999985
 20
-0.334234000000265
 30
0.0
 11
-69.43193999999992
 21
-0.3693549999999277
 31
0.0
  0
LINE
  5
71F2
330
A
100
AcDbEntity
  8
0
  6
Continuous
 62
     7
100
AcDbLine
 10
-69.43193999999992
 20
-0.3693549999999277
 30
0.0
 11
-69.447948
 21
-0.4043730000001915
 31
0.0
  0
LINE
  5
71F3
330
A
100
AcDbEntity
  8
0
  6
Continuous
 62
     7
100
AcDbLine
 10
-69.447948
 20
-0.4043730000001915
 30
0.0
 11
-69.46157900000001
 21
-0.4395860000001905
 31
0.0
  0
LINE
  5
71F4
330
A
100
AcDbEntity
  8
0
  6
Continuous
 62
     7
100
AcDbLine
 10
-69.46157900000001
 20
-0.4395860000001905
 30
0.0
 11
-69.47261000000003
 21
-0.4746599999999718
 31
0.0
  0
LINE
  5
71F5
330
A
100
AcDbEntity
  8
0
  6
Continuous
 62
     7
100
AcDbLine
 10
-69.47261000000003
 20
-0.4746599999999718
 30
0.0
 11
-69.4810379999999
 21
-0.5098910000002661
 31
0.0
  0
LINE
  5
71F6
330
A
100
AcDbEntity
  8
0
  6
Continuous
 62
     7
100
AcDbLine
 10
-69.4810379999999
 20
-0.5098910000002661
 30
0.0
 11
-69.48668799999996
 21
-0.5449409999999944
 31
0.0
  0
LINE
  5
71F7
330
A
100
AcDbEntity
  8
0
  6
Continuous
 62
     7
100
AcDbLine
 10
-69.48668799999996
 20
-0.5449409999999944
 30
0.0
 11
-69.48950599999989
 21
-0.5799049999999398
 31
0.0
  0
LINE
  5
71F8
330
A
100
AcDbEntity
  8
0
  6
Continuous
 62
     7
100
AcDbLine
 10
-69.48950599999989
 20
-0.5799049999999398
 30
0.0
 11
-69.4898270000001
 21
-0.5962120000001505
 31
0.0
  0
LINE
  5
71F9
330
A
100
AcDbEntity
  8
0
  6
Continuous
 62
     7
100
AcDbLine
 10
173.451931
 20
-27.5
 30
0.0
 11
173.4925270000001
 21
-27.49917500000027
 31
0.0
  0
LINE
  5
71FA
330
A
100
AcDbEntity
  8
0
  6
Continuous
 62
     7
100
AcDbLine
 10
173.4925270000001
 20
-27.49917500000027
 30
0.0
 11
173.533052
 21
-27.49670400000025
 31
0.0
  0
LINE
  5
71FB
330
A
100
AcDbEntity
  8
0
  6
Continuous
 62
     7
100
AcDbLine
 10
173.533052
 20
-27.49670400000025
 30
0.0
 11
173.57372
 21
-27.49255599999993
 31
0.0
  0
LINE
  5
71FC
330
A
100
AcDbEntity
  8
0
  6
Continuous
 62
     7
100
AcDbLine
 10
173.57372
 20
-27.49255599999993
 30
0.0
 11
173.6141729999999
 21
-27.48675100000026
 31
0.0
  0
LINE
  5
71FD
330
A
100
AcDbEntity
  8
0
  6
Continuous
 62
     7
100
AcDbLine
 10
173.6141729999999
 20
-27.48675100000026
 30
0.0
 11
173.655221
 21
-27.47911799999997
 31
0.0
  0
LINE
  5
71FE
330
A
100
AcDbEntity
  8
0
  6
Continuous
 62
     7
100
AcDbLine
 10
173.655221
 20
-27.47911799999997
 30
0.0
 11
173.6958959999999
 21
-27.46978400000001
 31
0.0
  0
LINE
  5
71FF
330
A
100
AcDbEntity
  8
0
  6
Continuous
 62
     7
100
AcDbLine
 10
173.6958959999999
 20
-27.46978400000001
 30
0.0
 11
173.7364199999999
 21
-27.45867899999996
 31
0.0
  0
LINE
  5
7200
330
A
100
AcDbEntity
  8
0
  6
Continuous
 62
     7
100
AcDbLine
 10
173.7364199999999
 20
-27.45867899999996
 30
0.0
 11
173.7764159999999
 21
-27.44589099999996
 31
0.0
  0
LINE
  5
7201
330
A
100
AcDbEntity
  8
0
  6
Continuous
 62
     7
100
AcDbLine
 10
173.7764159999999
 20
-27.44589099999996
 30
0.0
 11
173.814425
 21
-27.43198499999995
 31
0.0
  0
LINE
  5
7202
330
A
100
AcDbEntity
  8
0
  6
Continuous
 62
     7
100
AcDbLine
 10
173.814425
 20
-27.43198499999995
 30
0.0
 11
173.851813
 21
-27.4165670000001
 31
0.0
  0
LINE
  5
7203
330
A
100
AcDbEntity
  8
0
  6
Continuous
 62
     7
100
AcDbLine
 10
173.851813
 20
-27.4165670000001
 30
0.0
 11
173.889138
 21
-27.39935700000001
 31
0.0
  0
LINE
  5
7204
330
A
100
AcDbEntity
  8
0
  6
Continuous
 62
     7
100
AcDbLine
 10
173.889138
 20
-27.39935700000001
 30
0.0
 11
173.9257239999999
 21
-27.38062900000023
 31
0.0
  0
LINE
  5
7205
330
A
100
AcDbEntity
  8
0
  6
Continuous
 62
     7
100
AcDbLine
 10
173.9257239999999
 20
-27.38062900000023
 30
0.0
 11
173.961481
 21
-27.36043700000028
 31
0.0
  0
LINE
  5
7206
330
A
100
AcDbEntity
  8
0
  6
Continuous
 62
     7
100
AcDbLine
 10
173.961481
 20
-27.36043700000028
 30
0.0
 11
173.996316
 21
-27.33883500000002
 31
0.0
  0
LINE
  5
7207
330
A
100
AcDbEntity
  8
0
  6
Continuous
 62
     7
100
AcDbLine
 10
173.996316
 20
-27.33883500000002
 30
0.0
 11
174.0308069999998
 21
-27.31541500000026
 31
0.0
  0
LINE
  5
7208
330
A
100
AcDbEntity
  8
0
  6
Continuous
 62
     7
100
AcDbLine
 10
174.0308069999998
 20
-27.31541500000026
 30
0.0
 11
174.0642579999999
 21
-27.29060500000026
 31
0.0
  0
LINE
  5
7209
330
A
100
AcDbEntity
  8
0
  6
Continuous
 62
     7
100
AcDbLine
 10
174.0642579999999
 20
-27.29060500000026
 30
0.0
 11
174.095898
 21
-27.26505300000019
 31
0.0
  0
LINE
  5
720A
330
A
100
AcDbEntity
  8
0
  6
Continuous
 62
     7
100
AcDbLine
 10
174.095898
 20
-27.26505300000019
 30
0.0
 11
174.1264409999999
 21
-27.23826500000019
 31
0.0
  0
LINE
  5
720B
330
A
100
AcDbEntity
  8
0
  6
Continuous
 62
     7
100
AcDbLine
 10
174.1264409999999
 20
-27.23826500000019
 30
0.0
 11
174.15632
 21
-27.20980899999995
 31
0.0
  0
LINE
  5
720C
330
A
100
AcDbEntity
  8
0
  6
Continuous
 62
     7
100
AcDbLine
 10
174.15632
 20
-27.20980899999995
 30
0.0
 11
174.184995
 21
-27.18015100000014
 31
0.0
  0
LINE
  5
720D
330
A
100
AcDbEntity
  8
0
  6
Continuous
 62
     7
100
AcDbLine
 10
174.184995
 20
-27.18015100000014
 30
0.0
 11
174.212397
 21
-27.14937199999997
 31
0.0
  0
LINE
  5
720E
330
A
100
AcDbEntity
  8
0
  6
Continuous
 62
     7
100
AcDbLine
 10
174.212397
 20
-27.14937199999997
 30
0.0
 11
174.2384610000001
 21
-27.11755099999994
 31
0.0
  0
LINE
  5
720F
330
A
100
AcDbEntity
  8
0
  6
Continuous
 62
     7
100
AcDbLine
 10
174.2384610000001
 20
-27.11755099999994
 30
0.0
 11
174.263592
 21
-27.08412800000019
 31
0.0
  0
LINE
  5
7210
330
A
100
AcDbEntity
  8
0
  6
Continuous
 62
     7
100
AcDbLine
 10
174.263592
 20
-27.08412800000019
 30
0.0
 11
174.2872809999999
 21
-27.04971800000021
 31
0.0
  0
LINE
  5
7211
330
A
100
AcDbEntity
  8
0
  6
Continuous
 62
     7
100
AcDbLine
 10
174.2872809999999
 20
-27.04971800000021
 30
0.0
 11
174.309343
 21
-27.01463000000013
 31
0.0
  0
LINE
  5
7212
330
A
100
AcDbEntity
  8
0
  6
Continuous
 62
     7
100
AcDbLine
 10
174.309343
 20
-27.01463000000013
 30
0.0
 11
174.3299139999999
 21
-26.97869100000025
 31
0.0
  0
LINE
  5
7213
330
A
100
AcDbEntity
  8
0
  6
Continuous
 62
     7
100
AcDbLine
 10
174.3299139999999
 20
-26.97869100000025
 30
0.0
 11
174.3490879999999
 21
-26.94171100000029
 31
0.0
  0
LINE
  5
7214
330
A
100
AcDbEntity
  8
0
  6
Continuous
 62
     7
100
AcDbLine
 10
174.3490879999999
 20
-26.94171100000029
 30
0.0
 11
174.366692
 21
-26.90399500000024
 31
0.0
  0
LINE
  5
7215
330
A
100
AcDbEntity
  8
0
  6
Continuous
 62
     7
100
AcDbLine
 10
174.366692
 20
-26.90399500000024
 30
0.0
 11
174.383017
 21
-26.86479599999997
 31
0.0
  0
LINE
  5
7216
330
A
100
AcDbEntity
  8
0
  6
Continuous
 62
     7
100
AcDbLine
 10
174.383017
 20
-26.86479599999997
 30
0.0
 11
174.3976559999999
 21
-26.82496700000013
 31
0.0
  0
LINE
  5
7217
330
A
100
AcDbEntity
  8
0
  6
Continuous
 62
     7
100
AcDbLine
 10
174.3976559999999
 20
-26.82496700000013
 30
0.0
 11
174.4106679999999
 21
-26.78429199999995
 31
0.0
  0
LINE
  5
7218
330
A
100
AcDbEntity
  8
0
  6
Continuous
 62
     7
100
AcDbLine
 10
174.4106679999999
 20
-26.78429199999995
 30
0.0
 11
174.4219270000001
 21
-26.74311900000021
 31
0.0
  0
LINE
  5
7219
330
A
100
AcDbEntity
  8
0
  6
Continuous
 62
     7
100
AcDbLine
 10
174.4219270000001
 20
26.74311900000021
 30
0.0
 11
174.4108659999999
 21
26.78361399999972
 31
0.0
  0
LINE
  5
721A
330
A
100
AcDbEntity
  8
0
  6
Continuous
 62
     7
100
AcDbLine
 10
174.4108659999999
 20
26.78361399999972
 30
0.0
 11
174.398097
 21
26.8236629999999
 31
0.0
  0
LINE
  5
721B
330
A
100
AcDbEntity
  8
0
  6
Continuous
 62
     7
100
AcDbLine
 10
174.398097
 20
26.8236629999999
 30
0.0
 11
174.383652
 21
26.86316399999999
 31
0.0
  0
LINE
  5
721C
330
A
100
AcDbEntity
  8
0
  6
Continuous
 62
     7
100
AcDbLine
 10
174.383652
 20
26.86316399999999
 30
0.0
 11
174.367563
 21
26.902016
 31
0.0
  0
LINE
  5
721D
330
A
100
AcDbEntity
  8
0
  6
Continuous
 62
     7
100
AcDbLine
 10
174.367563
 20
26.902016
 30
0.0
 11
174.3493040000001
 21
26.94126299999982
 31
0.0
  0
LINE
  5
721E
330
A
100
AcDbEntity
  8
0
  6
Continuous
 62
     7
100
AcDbLine
 10
174.3493040000001
 20
26.94126299999982
 30
0.0
 11
174.329328
 21
26.97974999999974
 31
0.0
  0
LINE
  5
721F
330
A
100
AcDbEntity
  8
0
  6
Continuous
 62
     7
100
AcDbLine
 10
174.329328
 20
26.97974999999974
 30
0.0
 11
174.307688
 21
27.01736900000004
 31
0.0
  0
LINE
  5
7220
330
A
100
AcDbEntity
  8
0
  6
Continuous
 62
     7
100
AcDbLine
 10
174.307688
 20
27.01736900000004
 30
0.0
 11
174.284437
 21
27.05401600000005
 31
0.0
  0
LINE
  5
7221
330
A
100
AcDbEntity
  8
0
  6
Continuous
 62
     7
100
AcDbLine
 10
174.284437
 20
27.05401600000005
 30
0.0
 11
174.260295
 21
27.08867699999996
 31
0.0
  0
LINE
  5
7222
330
A
100
AcDbEntity
  8
0
  6
Continuous
 62
     7
100
AcDbLine
 10
174.260295
 20
27.08867699999996
 30
0.0
 11
174.2346609999999
 21
27.12234999999987
 31
0.0
  0
LINE
  5
7223
330
A
100
AcDbEntity
  8
0
  6
Continuous
 62
     7
100
AcDbLine
 10
174.2346609999999
 20
27.12234999999987
 30
0.0
 11
174.2076019999999
 21
27.154945
 31
0.0
  0
LINE
  5
7224
330
A
100
AcDbEntity
  8
0
  6
Continuous
 62
     7
100
AcDbLine
 10
174.2076019999999
 20
27.154945
 30
0.0
 11
174.1791819999998
 21
27.18637100000001
 31
0.0
  0
LINE
  5
7225
330
A
100
AcDbEntity
  8
0
  6
Continuous
 62
     7
100
AcDbLine
 10
174.1791819999998
 20
27.18637100000001
 30
0.0
 11
174.148504
 21
27.21748000000002
 31
0.0
  0
LINE
  5
7226
330
A
100
AcDbEntity
  8
0
  6
Continuous
 62
     7
100
AcDbLine
 10
174.148504
 20
27.21748000000002
 30
0.0
 11
174.116428
 21
27.24728099999982
 31
0.0
  0
LINE
  5
7227
330
A
100
AcDbEntity
  8
0
  6
Continuous
 62
     7
100
AcDbLine
 10
174.116428
 20
27.24728099999982
 30
0.0
 11
174.0830450000001
 21
27.27568399999973
 31
0.0
  0
LINE
  5
7228
330
A
100
AcDbEntity
  8
0
  6
Continuous
 62
     7
100
AcDbLine
 10
174.0830450000001
 20
27.27568399999973
 30
0.0
 11
174.0484450000001
 21
27.30260299999986
 31
0.0
  0
LINE
  5
7229
330
A
100
AcDbEntity
  8
0
  6
Continuous
 62
     7
100
AcDbLine
 10
174.0484450000001
 20
27.30260299999986
 30
0.0
 11
174.014331
 21
27.32686100000001
 31
0.0
  0
LINE
  5
722A
330
A
100
AcDbEntity
  8
0
  6
Continuous
 62
     7
100
AcDbLine
 10
174.014331
 20
27.32686100000001
 30
0.0
 11
173.979163
 21
27.34971399999972
 31
0.0
  0
LINE
  5
722B
330
A
100
AcDbEntity
  8
0
  6
Continuous
 62
     7
100
AcDbLine
 10
173.979163
 20
27.34971399999972
 30
0.0
 11
173.943035
 21
27.37109699999996
 31
0.0
  0
LINE
  5
722C
330
A
100
AcDbEntity
  8
0
  6
Continuous
 62
     7
100
AcDbLine
 10
173.943035
 20
27.37109699999996
 30
0.0
 11
173.9060389999999
 21
27.39094599999987
 31
0.0
  0
LINE
  5
722D
330
A
100
AcDbEntity
  8
0
  6
Continuous
 62
     7
100
AcDbLine
 10
173.9060389999999
 20
27.39094599999987
 30
0.0
 11
173.867035
 21
27.4097690000001
 31
0.0
  0
LINE
  5
722E
330
A
100
AcDbEntity
  8
0
  6
Continuous
 62
     7
100
AcDbLine
 10
173.867035
 20
27.4097690000001
 30
0.0
 11
173.827178
 21
27.426917
 31
0.0
  0
LINE
  5
722F
330
A
100
AcDbEntity
  8
0
  6
Continuous
 62
     7
100
AcDbLine
 10
173.827178
 20
27.426917
 30
0.0
 11
173.7865840000002
 21
27.44233700000008
 31
0.0
  0
LINE
  5
7230
330
A
100
AcDbEntity
  8
0
  6
Continuous
 62
     7
100
AcDbLine
 10
173.7865840000002
 20
27.44233700000008
 30
0.0
 11
173.745368
 21
27.45597800000008
 31
0.0
  0
LINE
  5
7231
330
A
100
AcDbEntity
  8
0
  6
Continuous
 62
     7
100
AcDbLine
 10
173.745368
 20
27.45597800000008
 30
0.0
 11
173.6977319999998
 21
27.46929899999975
 31
0.0
  0
LINE
  5
7232
330
A
100
AcDbEntity
  8
0
  6
Continuous
 62
     7
100
AcDbLine
 10
173.6977319999998
 20
27.46929899999975
 30
0.0
 11
173.649335
 21
27.4802679999998
 31
0.0
  0
LINE
  5
7233
330
A
100
AcDbEntity
  8
0
  6
Continuous
 62
     7
100
AcDbLine
 10
173.649335
 20
27.4802679999998
 30
0.0
 11
173.600367
 21
27.48885400000006
 31
0.0
  0
LINE
  5
7234
330
A
100
AcDbEntity
  8
0
  6
Continuous
 62
     7
100
AcDbLine
 10
173.600367
 20
27.48885400000006
 30
0.0
 11
173.5510180000001
 21
27.49502500000017
 31
0.0
  0
LINE
  5
7235
330
A
100
AcDbEntity
  8
0
  6
Continuous
 62
     7
100
AcDbLine
 10
173.5510180000001
 20
27.49502500000017
 30
0.0
 11
173.5014760000001
 21
27.49875099999997
 31
0.0
  0
LINE
  5
7236
330
A
100
AcDbEntity
  8
0
  6
Continuous
 62
     7
100
AcDbLine
 10
173.5014760000001
 20
27.49875099999997
 30
0.0
 11
173.451931
 21
27.5
 31
0.0
  0
ARC
  5
7237
330
A
100
AcDbEntity
  8
0
  6
Continuous
 62
     7
100
AcDbCircle
 10
142.6831753021749
 20
35.72003278149328
 30
0.0
 40
8.769191351244117
100
AcDbArc
 50
359.5424178466032
 51
26.37723068299521
  0
LINE
  5
7238
330
A
100
AcDbEntity
  8
0
  6
Continuous
 62
     7
100
AcDbLine
 10
150.5393920000001
 20
39.61600199999998
 30
0.0
 11
150.4954149999998
 21
39.64999999999987
 31
0.0
  0
LINE
  5
7239
330
A
100
AcDbEntity
  8
0
  6
Continuous
 62
     7
100
AcDbLine
 10
150.4954149999998
 20
-39.64999999999998
 30
0.0
 11
150.5743110000001
 21
-39.56630099999996
 31
0.0
  0
ARC
  5
723A
330
A
100
AcDbEntity
  8
0
  6
Continuous
 62
     7
100
AcDbCircle
 10
142.513249690892
 20
-35.7030233137209
 30
0.0
 40
8.938994569329372
100
AcDbArc
 50
334.3938482528366
 51
0.3398625968595821
  0
LINE
  5
723B
330
A
100
AcDbEntity
  8
0
  6
Continuous
 62
     7
100
AcDbLine
 10
-23.23207400000001
 20
-134.0445480000001
 30
0.0
 11
-23.17772600000012
 21
-133.9519490000001
 31
0.0
  0
ARC
  5
723C
330
A
100
AcDbEntity
  8
0
  6
Continuous
 62
     7
100
AcDbCircle
 10
-25.61335359928489
 20
-133.1682512462226
 30
0.0
 40
2.558605864855211
100
AcDbArc
 50
342.1636836873382
 51
2.098710132553544
  0
ARC
  5
723D
330
A
100
AcDbEntity
  8
0
  6
Continuous
 62
     7
100
AcDbCircle
 10
-26.10133596933201
 20
138.1218235102386
 30
0.0
 40
3.045238891335106
100
AcDbArc
 50
359.1105568689893
 51
14.53736604143658
  0
LINE
  5
723E
330
A
100
AcDbEntity
  8
0
  6
Continuous
 62
     7
100
AcDbLine
 10
-23.153593
 20
138.886213
 30
0.0
 11
-23.19517999999995
 21
138.989313
 31
0.0
  0
LINE
  5
723F
330
A
100
AcDbEntity
  8
0
  6
Continuous
 62
     7
100
AcDbLine
 10
-23.19517999999995
 20
138.989313
 30
0.0
 11
-23.23207400000001
 21
139.0445480000001
 31
0.0
  0
ARC
  5
7240
330
A
100
AcDbEntity
  8
0
  6
Continuous
 62
     7
100
AcDbCircle
 10
199.736123877771
 20
-144.719425070817
 30
0.0
 40
1.320727443265889
100
AcDbArc
 50
238.0833979761931
 51
259.4085497044537
  0
LINE
  5
7241
330
A
100
AcDbEntity
  8
0
  6
Continuous
 62
     7
100
AcDbLine
 10
199.037876
 20
-145.840483
 30
0.0
 11
198.9404280000001
 21
-145.7667450000001
 31
0.0
  0
LINE
  5
7242
330
A
100
AcDbEntity
  8
0
  6
Continuous
 62
     7
100
AcDbLine
 10
198.9404280000001
 20
-145.7667450000001
 30
0.0
 11
198.8648350000001
 21
-145.6880670000001
 31
0.0
  0
LINE
  5
7243
330
A
100
AcDbEntity
  8
0
  6
Continuous
 62
     7
100
AcDbLine
 10
198.8648350000001
 20
-145.6880670000001
 30
0.0
 11
198.8034149999998
 21
-145.5920599999999
 31
0.0
  0
LINE
  5
7244
330
A
100
AcDbEntity
  8
0
  6
Continuous
 62
     7
100
AcDbLine
 10
130.498935
 20
-131.934221
 30
0.0
 11
130.4874529999999
 21
-131.931532
 31
0.0
  0
LINE
  5
7245
330
A
100
AcDbEntity
  8
0
  6
Continuous
 62
     7
100
AcDbLine
 10
130.4874529999999
 20
-131.931532
 30
0.0
 11
130.471111
 21
-131.926509
 31
0.0
  0
LINE
  5
7246
330
A
100
AcDbEntity
  8
0
  6
Continuous
 62
     7
100
AcDbLine
 10
130.471111
 20
-131.926509
 30
0.0
 11
130.454854
 21
-131.920107
 31
0.0
  0
LINE
  5
7247
330
A
100
AcDbEntity
  8
0
  6
Continuous
 62
     7
100
AcDbLine
 10
130.454854
 20
-131.920107
 30
0.0
 11
130.4385950000001
 21
-131.9122780000001
 31
0.0
  0
LINE
  5
7248
330
A
100
AcDbEntity
  8
0
  6
Continuous
 62
     7
100
AcDbLine
 10
130.4385950000001
 20
-131.9122780000001
 30
0.0
 11
130.4224790000001
 21
-131.9030839999999
 31
0.0
  0
LINE
  5
7249
330
A
100
AcDbEntity
  8
0
  6
Continuous
 62
     7
100
AcDbLine
 10
130.4224790000001
 20
-131.9030839999999
 30
0.0
 11
130.4068909999998
 21
-131.8927950000001
 31
0.0
  0
LINE
  5
724A
330
A
100
AcDbEntity
  8
0
  6
Continuous
 62
     7
100
AcDbLine
 10
130.4068909999998
 20
-131.8927950000001
 30
0.0
 11
130.3914939999999
 21
-131.8812420000001
 31
0.0
  0
LINE
  5
724B
330
A
100
AcDbEntity
  8
0
  6
Continuous
 62
     7
100
AcDbLine
 10
130.3914939999999
 20
-131.8812420000001
 30
0.0
 11
130.376211
 21
-131.868357
 31
0.0
  0
LINE
  5
724C
330
A
100
AcDbEntity
  8
0
  6
Continuous
 62
     7
100
AcDbLine
 10
130.376211
 20
-131.868357
 30
0.0
 11
130.3611719999999
 21
-131.8542400000001
 31
0.0
  0
LINE
  5
724D
330
A
100
AcDbEntity
  8
0
  6
Continuous
 62
     7
100
AcDbLine
 10
130.3611719999999
 20
-131.8542400000001
 30
0.0
 11
130.3460989999998
 21
-131.838587
 31
0.0
  0
LINE
  5
724E
330
A
100
AcDbEntity
  8
0
  6
Continuous
 62
     7
100
AcDbLine
 10
130.3460989999998
 20
-131.838587
 30
0.0
 11
130.3313319999999
 21
-131.821709
 31
0.0
  0
LINE
  5
724F
330
A
100
AcDbEntity
  8
0
  6
Continuous
 62
     7
100
AcDbLine
 10
130.3313319999999
 20
-131.821709
 30
0.0
 11
130.3167960000001
 21
-131.8035089999999
 31
0.0
  0
LINE
  5
7250
330
A
100
AcDbEntity
  8
0
  6
Continuous
 62
     7
100
AcDbLine
 10
130.3167960000001
 20
-131.8035089999999
 30
0.0
 11
130.302621
 21
-131.7841360000001
 31
0.0
  0
LINE
  5
7251
330
A
100
AcDbEntity
  8
0
  6
Continuous
 62
     7
100
AcDbLine
 10
130.302621
 20
-131.7841360000001
 30
0.0
 11
130.2889230000001
 21
-131.7637710000001
 31
0.0
  0
LINE
  5
7252
330
A
100
AcDbEntity
  8
0
  6
Continuous
 62
     7
100
AcDbLine
 10
130.2889230000001
 20
-131.7637710000001
 30
0.0
 11
130.2756250000002
 21
-131.742322
 31
0.0
  0
LINE
  5
7253
330
A
100
AcDbEntity
  8
0
  6
Continuous
 62
     7
100
AcDbLine
 10
130.2756250000002
 20
-131.742322
 30
0.0
 11
130.2626640000001
 21
-131.719671
 31
0.0
  0
LINE
  5
7254
330
A
100
AcDbEntity
  8
0
  6
Continuous
 62
     7
100
AcDbLine
 10
130.2626640000001
 20
-131.719671
 30
0.0
 11
130.2501529999999
 21
-131.6960019999999
 31
0.0
  0
LINE
  5
7255
330
A
100
AcDbEntity
  8
0
  6
Continuous
 62
     7
100
AcDbLine
 10
130.2501529999999
 20
-131.6960019999999
 30
0.0
 11
130.2378639999999
 21
-131.670828
 31
0.0
  0
LINE
  5
7256
330
A
100
AcDbEntity
  8
0
  6
Continuous
 62
     7
100
AcDbLine
 10
130.2378639999999
 20
-131.670828
 30
0.0
 11
130.2260860000001
 21
-131.6446820000001
 31
0.0
  0
LINE
  5
7257
330
A
100
AcDbEntity
  8
0
  6
Continuous
 62
     7
100
AcDbLine
 10
130.2260860000001
 20
-131.6446820000001
 30
0.0
 11
130.2147609999999
 21
-131.617417
 31
0.0
  0
LINE
  5
7258
330
A
100
AcDbEntity
  8
0
  6
Continuous
 62
     7
100
AcDbLine
 10
130.2147609999999
 20
-131.617417
 30
0.0
 11
130.2039920000002
 21
-131.5892610000001
 31
0.0
  0
LINE
  5
7259
330
A
100
AcDbEntity
  8
0
  6
Continuous
 62
     7
100
AcDbLine
 10
198.8034149999998
 20
-106.5312339999999
 30
0.0
 11
198.8667399999999
 21
-106.4248480000001
 31
0.0
  0
LINE
  5
725A
330
A
100
AcDbEntity
  8
0
  6
Continuous
 62
     7
100
AcDbLine
 10
198.8667399999999
 20
-106.4248480000001
 30
0.0
 11
198.9532469999999
 21
-106.3261309999999
 31
0.0
  0
ARC
  5
725B
330
A
100
AcDbEntity
  8
0
  6
Continuous
 62
     7
100
AcDbCircle
 10
200.179721745576
 20
-107.7604040074263
 30
0.0
 40
1.887161721042573
100
AcDbArc
 50
94.05776755401017
 51
130.5343960116026
  0
LINE
  5
725C
330
A
100
AcDbEntity
  8
0
  6
Continuous
 62
     7
100
AcDbLine
 10
190.159702
 20
-151.793328
 30
0.0
 11
190.1873579999999
 21
-151.9510669999999
 31
0.0
  0
LINE
  5
725D
330
A
100
AcDbEntity
  8
0
  6
Continuous
 62
     7
100
AcDbLine
 10
190.1873579999999
 20
-151.9510669999999
 30
0.0
 11
190.281468
 21
-152.1168250000003
 31
0.0
  0
LINE
  5
725E
330
A
100
AcDbEntity
  8
0
  6
Continuous
 62
     7
100
AcDbLine
 10
190.281468
 20
-152.1168250000003
 30
0.0
 11
190.3532149999998
 21
-152.1967259999999
 31
0.0
  0
ARC
  5
725F
330
A
100
AcDbEntity
  8
0
  6
Continuous
 62
     7
100
AcDbCircle
 10
197.1501429119312
 20
-139.0935179109598
 30
0.0
 40
14.76117513156311
100
AcDbArc
 50
242.5832177510497
 51
263.4504675332037
  0
ARC
  5
7260
330
A
100
AcDbEntity
  8
0
  6
Continuous
 62
     7
100
AcDbCircle
 10
197.30322222328
 20
-97.78975723185137
 30
0.0
 40
10.22375508739049
100
AcDbArc
 50
82.87323267360129
 51
126.8402584706476
  0
ARC
  5
7261
330
A
100
AcDbEntity
  8
0
  6
Continuous
 62
     7
100
AcDbCircle
 10
197.659757511125
 20
-119.6385934840856
 30
0.0
 40
32.00659589528543
100
AcDbArc
 50
78.47788286387609
 51
88.36740877572296
  0
LINE
  5
7262
330
A
100
AcDbEntity
  8
0
  6
Continuous
 62
     7
100
AcDbLine
 10
73.890355
 20
-27.5
 30
0.0
 11
73.7122710000001
 21
-27.48893899999997
 31
0.0
  0
LINE
  5
7263
330
A
100
AcDbEntity
  8
0
  6
Continuous
 62
     7
100
AcDbLine
 10
73.7122710000001
 20
-27.48893899999997
 30
0.0
 11
73.53330600000005
 21
-27.45570299999997
 31
0.0
  0
ARC
  5
7264
330
A
100
AcDbEntity
  8
0
  6
Continuous
 62
     7
100
AcDbCircle
 10
73.87730394790309
 20
-26.03151320911968
 30
0.0
 40
1.46514543599228
100
AcDbArc
 50
227.0781689428515
 51
256.4208984580448
  0
LINE
  5
7265
330
A
100
AcDbEntity
  8
0
  6
Continuous
 62
     7
100
AcDbLine
 10
72.87953999999991
 20
-27.10441500000025
 30
0.0
 11
72.77963900000009
 21
-26.99439600000028
 31
0.0
  0
LINE
  5
7266
330
A
100
AcDbEntity
  8
0
  6
Continuous
 62
     7
100
AcDbLine
 10
72.77963900000009
 20
-26.99439600000028
 30
0.0
 11
72.7209479999999
 21
-26.91151200000013
 31
0.0
  0
LINE
  5
7267
330
A
100
AcDbEntity
  8
0
  6
Continuous
 62
     7
100
AcDbLine
 10
72.7209479999999
 20
-26.91151200000013
 30
0.0
 11
72.66733999999996
 21
-26.81344100000001
 31
0.0
  0
LINE
  5
7268
330
A
100
AcDbEntity
  8
0
  6
Continuous
 62
     7
100
AcDbLine
 10
72.66733999999996
 20
-26.81344100000001
 30
0.0
 11
72.63853299999983
 21
-26.74311900000021
 31
0.0
  0
LINE
  5
7269
330
A
100
AcDbEntity
  8
0
  6
Continuous
 62
     7
100
AcDbLine
 10
72.63853299999983
 20
26.74311900000021
 30
0.0
 11
72.65278499999998
 21
26.78025999999977
 31
0.0
  0
LINE
  5
726A
330
A
100
AcDbEntity
  8
0
  6
Continuous
 62
     7
100
AcDbLine
 10
72.65278499999998
 20
26.78025999999977
 30
0.0
 11
72.668768
 21
26.81644199999983
 31
0.0
  0
LINE
  5
726B
330
A
100
AcDbEntity
  8
0
  6
Continuous
 62
     7
100
AcDbLine
 10
72.668768
 20
26.81644199999983
 30
0.0
 11
72.68633700000009
 21
26.85161900000004
 31
0.0
  0
LINE
  5
726C
330
A
100
AcDbEntity
  8
0
  6
Continuous
 62
     7
100
AcDbLine
 10
72.68633700000009
 20
26.85161900000004
 30
0.0
 11
72.70534399999997
 21
26.88574100000017
 31
0.0
  0
LINE
  5
726D
330
A
100
AcDbEntity
  8
0
  6
Continuous
 62
     7
100
AcDbLine
 10
72.70534399999997
 20
26.88574100000017
 30
0.0
 11
72.72564100000001
 21
26.91875999999979
 31
0.0
  0
LINE
  5
726E
330
A
100
AcDbEntity
  8
0
  6
Continuous
 62
     7
100
AcDbLine
 10
72.72564100000001
 20
26.91875999999979
 30
0.0
 11
72.74708199999986
 21
26.95062900000016
 31
0.0
  0
LINE
  5
726F
330
A
100
AcDbEntity
  8
0
  6
Continuous
 62
     7
100
AcDbLine
 10
72.74708199999986
 20
26.95062900000016
 30
0.0
 11
72.76951899999993
 21
26.98129900000004
 31
0.0
  0
LINE
  5
7270
330
A
100
AcDbEntity
  8
0
  6
Continuous
 62
     7
100
AcDbLine
 10
72.76951899999993
 20
26.98129900000004
 30
0.0
 11
72.79280500000004
 21
27.01072199999999
 31
0.0
  0
LINE
  5
7271
330
A
100
AcDbEntity
  8
0
  6
Continuous
 62
     7
100
AcDbLine
 10
72.79280500000004
 20
27.01072199999999
 30
0.0
 11
72.83124700000008
 21
27.05497999999977
 31
0.0
  0
LINE
  5
7272
330
A
100
AcDbEntity
  8
0
  6
Continuous
 62
     7
100
AcDbLine
 10
72.83124700000008
 20
27.05497999999977
 30
0.0
 11
72.87155000000007
 21
27.096722
 31
0.0
  0
LINE
  5
7273
330
A
100
AcDbEntity
  8
0
  6
Continuous
 62
     7
100
AcDbLine
 10
72.87155000000007
 20
27.096722
 30
0.0
 11
72.91347700000007
 21
27.13600999999972
 31
0.0
  0
LINE
  5
7274
330
A
100
AcDbEntity
  8
0
  6
Continuous
 62
     7
100
AcDbLine
 10
72.91347700000007
 20
27.13600999999972
 30
0.0
 11
72.95679200000019
 21
27.17290300000002
 31
0.0
  0
LINE
  5
7275
330
A
100
AcDbEntity
  8
0
  6
Continuous
 62
     7
100
AcDbLine
 10
72.95679200000019
 20
27.17290300000002
 30
0.0
 11
73.00125699999989
 21
27.20745999999997
 31
0.0
  0
LINE
  5
7276
330
A
100
AcDbEntity
  8
0
  6
Continuous
 62
     7
100
AcDbLine
 10
73.00125699999989
 20
27.20745999999997
 30
0.0
 11
73.04663600000004
 21
27.23974199999998
 31
0.0
  0
LINE
  5
7277
330
A
100
AcDbEntity
  8
0
  6
Continuous
 62
     7
100
AcDbLine
 10
73.04663600000004
 20
27.23974199999998
 30
0.0
 11
73.09268999999995
 21
27.2698079999999
 31
0.0
  0
LINE
  5
7278
330
A
100
AcDbEntity
  8
0
  6
Continuous
 62
     7
100
AcDbLine
 10
73.09268999999995
 20
27.2698079999999
 30
0.0
 11
73.16594200000007
 21
27.31274699999972
 31
0.0
  0
LINE
  5
7279
330
A
100
AcDbEntity
  8
0
  6
Continuous
 62
     7
100
AcDbLine
 10
73.16594200000007
 20
27.31274699999972
 30
0.0
 11
73.24072000000002
 21
27.35103200000003
 31
0.0
  0
LINE
  5
727A
330
A
100
AcDbEntity
  8
0
  6
Continuous
 62
     7
100
AcDbLine
 10
73.24072000000002
 20
27.35103200000003
 30
0.0
 11
73.31672200000003
 21
27.38475199999982
 31
0.0
  0
LINE
  5
727B
330
A
100
AcDbEntity
  8
0
  6
Continuous
 62
     7
100
AcDbLine
 10
73.31672200000003
 20
27.38475199999982
 30
0.0
 11
73.393644
 21
27.41399199999989
 31
0.0
  0
LINE
  5
727C
330
A
100
AcDbEntity
  8
0
  6
Continuous
 62
     7
100
AcDbLine
 10
73.393644
 20
27.41399199999989
 30
0.0
 11
73.47118500000011
 21
27.43884000000003
 31
0.0
  0
LINE
  5
727D
330
A
100
AcDbEntity
  8
0
  6
Continuous
 62
     7
100
AcDbLine
 10
73.47118500000011
 20
27.43884000000003
 30
0.0
 11
73.54904099999997
 21
27.45938300000001
 31
0.0
  0
LINE
  5
727E
330
A
100
AcDbEntity
  8
0
  6
Continuous
 62
     7
100
AcDbLine
 10
73.54904099999997
 20
27.45938300000001
 30
0.0
 11
73.62691000000019
 21
27.47570700000006
 31
0.0
  0
LINE
  5
727F
330
A
100
AcDbEntity
  8
0
  6
Continuous
 62
     7
100
AcDbLine
 10
73.62691000000019
 20
27.47570700000006
 30
0.0
 11
73.71484600000008
 21
27.48915499999976
 31
0.0
  0
LINE
  5
7280
330
A
100
AcDbEntity
  8
0
  6
Continuous
 62
     7
100
AcDbLine
 10
73.71484600000008
 20
27.48915499999976
 30
0.0
 11
73.80276000000003
 21
27.49727699999983
 31
0.0
  0
LINE
  5
7281
330
A
100
AcDbEntity
  8
0
  6
Continuous
 62
     7
100
AcDbLine
 10
73.80276000000003
 20
27.49727699999983
 30
0.0
 11
73.890355
 21
27.5
 31
0.0
  0
LINE
  5
7282
330
A
100
AcDbEntity
  8
0
  6
Continuous
 62
     7
100
AcDbLine
 10
56.68660900000009
 20
-42.0
 30
0.0
 11
56.58631599999989
 21
-41.99892199999999
 31
0.0
  0
LINE
  5
7283
330
A
100
AcDbEntity
  8
0
  6
Continuous
 62
     7
100
AcDbLine
 10
56.58631599999989
 20
-41.99892199999999
 30
0.0
 11
56.43799400000012
 21
-41.99258899999995
 31
0.0
  0
LINE
  5
7284
330
A
100
AcDbEntity
  8
0
  6
Continuous
 62
     7
100
AcDbLine
 10
56.43799400000012
 20
-41.99258899999995
 30
0.0
 11
56.31104400000004
 21
-41.9803220000001
 31
0.0
  0
LINE
  5
7285
330
A
100
AcDbEntity
  8
0
  6
Continuous
 62
     7
100
AcDbLine
 10
56.31104400000004
 20
-41.9803220000001
 30
0.0
 11
56.21679300000004
 21
-41.96437400000013
 31
0.0
  0
LINE
  5
7286
330
A
100
AcDbEntity
  8
0
  6
Continuous
 62
     7
100
AcDbLine
 10
56.21679300000004
 20
-41.96437400000013
 30
0.0
 11
56.13937899999996
 21
-41.94356300000015
 31
0.0
  0
LINE
  5
7287
330
A
100
AcDbEntity
  8
0
  6
Continuous
 62
     7
100
AcDbLine
 10
56.13937899999996
 20
-41.94356300000015
 30
0.0
 11
56.07895600000007
 21
-41.91784500000017
 31
0.0
  0
LINE
  5
7288
330
A
100
AcDbEntity
  8
0
  6
Continuous
 62
     7
100
AcDbLine
 10
56.07895600000007
 20
-41.91784500000017
 30
0.0
 11
56.03510200000004
 21
-41.88668499999994
 31
0.0
  0
LINE
  5
7289
330
A
100
AcDbEntity
  8
0
  6
Continuous
 62
     7
100
AcDbLine
 10
56.03510200000004
 20
-41.88668499999994
 30
0.0
 11
56.00877800000011
 21
-41.85041600000011
 31
0.0
  0
LINE
  5
728A
330
A
100
AcDbEntity
  8
0
  6
Continuous
 62
     7
100
AcDbLine
 10
56.00877800000011
 20
-41.85041600000011
 30
0.0
 11
56.0
 21
-41.8090900000002
 31
0.0
  0
LINE
  5
728B
330
A
100
AcDbEntity
  8
0
  6
Continuous
 62
     7
100
AcDbLine
 10
56.0
 20
-41.8090900000002
 30
0.0
 11
56.04113699999993
 21
-41.70225599999992
 31
0.0
  0
LINE
  5
728C
330
A
100
AcDbEntity
  8
0
  6
Continuous
 62
     7
100
AcDbLine
 10
56.04113699999993
 20
-41.70225599999992
 30
0.0
 11
56.16352000000007
 21
-41.57292500000017
 31
0.0
  0
ARC
  5
728D
330
A
100
AcDbEntity
  8
0
  6
Continuous
 62
     7
100
AcDbCircle
 10
67.30890477731714
 20
-62.78402577323323
 30
0.0
 40
23.96101829736592
100
AcDbArc
 50
88.3472183404933
 51
117.7197063353836
  0
LINE
  5
728E
330
A
100
AcDbEntity
  8
0
  6
Continuous
 62
     7
100
AcDbLine
 10
56.0
 20
41.8090900000002
 30
0.0
 11
56.0870870000001
 21
41.92205499999977
 31
0.0
  0
LINE
  5
728F
330
A
100
AcDbEntity
  8
0
  6
Continuous
 62
     7
100
AcDbLine
 10
56.0870870000001
 20
41.92205499999977
 30
0.0
 11
56.24440300000014
 21
41.96984499999973
 31
0.0
  0
ARC
  5
7290
330
A
100
AcDbEntity
  8
0
  6
Continuous
 62
     7
100
AcDbCircle
 10
56.64748278796492
 20
39.31625427032725
 30
0.0
 40
2.68403000655172
100
AcDbArc
 50
89.16609121387772
 51
98.63718871688385
  0
ARC
  5
7291
330
A
100
AcDbEntity
  8
0
  6
Continuous
 62
     7
100
AcDbCircle
 10
67.280932057153
 20
62.47668761644149
 30
0.0
 40
23.65464347031845
100
AcDbArc
 50
241.7970613852718
 51
271.7419795924793
  0
LINE
  5
7292
330
A
100
AcDbEntity
  8
0
  6
Continuous
 62
     7
100
AcDbLine
 10
56.10184300000014
 20
41.63034200000004
 30
0.0
 11
56.01138100000003
 21
41.75584800000001
 31
0.0
  0
LINE
  5
7293
330
A
100
AcDbEntity
  8
0
  6
Continuous
 62
     7
100
AcDbLine
 10
56.01138100000003
 20
41.75584800000001
 30
0.0
 11
56.0
 21
41.8090900000002
 31
0.0
  0
ARC
  5
7294
330
A
100
AcDbEntity
  8
0
  6
Continuous
 62
     7
100
AcDbCircle
 10
79.53881259674403
 20
-40.72040981283463
 30
0.0
 40
1.88783283568684
100
AcDbArc
 50
52.31305691883665
 51
91.17804640045298
  0
LINE
  5
7295
330
A
100
AcDbEntity
  8
0
  6
Continuous
 62
     7
100
AcDbLine
 10
80.69293300000003
 20
-39.22644900000012
 30
0.0
 11
80.78215300000008
 21
-39.31306799999993
 31
0.0
  0
LINE
  5
7296
330
A
100
AcDbEntity
  8
0
  6
Continuous
 62
     7
100
AcDbLine
 10
80.78215300000008
 20
-39.31306799999993
 30
0.0
 11
80.85750100000018
 21
-39.40581699999995
 31
0.0
  0
LINE
  5
7297
330
A
100
AcDbEntity
  8
0
  6
Continuous
 62
     7
100
AcDbLine
 10
80.85750100000018
 20
-39.40581699999995
 30
0.0
 11
80.91455100000008
 21
-39.49747300000014
 31
0.0
  0
LINE
  5
7298
330
A
100
AcDbEntity
  8
0
  6
Continuous
 62
     7
100
AcDbLine
 10
80.91455100000008
 20
-39.49747300000014
 30
0.0
 11
80.97090800000001
 21
-39.63221900000018
 31
0.0
  0
LINE
  5
7299
330
A
100
AcDbEntity
  8
0
  6
Continuous
 62
     7
100
AcDbLine
 10
80.97090800000001
 20
-39.63221900000018
 30
0.0
 11
80.99791900000012
 21
-39.77307099999996
 31
0.0
  0
LINE
  5
729A
330
A
100
AcDbEntity
  8
0
  6
Continuous
 62
     7
100
AcDbLine
 10
80.99791900000012
 20
-39.77307099999996
 30
0.0
 11
81.0
 21
-39.82461599999999
 31
0.0
  0
LINE
  5
729B
330
A
100
AcDbEntity
  8
0
  6
Continuous
 62
     7
100
AcDbLine
 10
81.0
 20
39.82461599999977
 30
0.0
 11
80.98420299999999
 21
39.68263000000002
 31
0.0
  0
LINE
  5
729C
330
A
100
AcDbEntity
  8
0
  6
Continuous
 62
     7
100
AcDbLine
 10
80.98420299999999
 20
39.68263000000002
 30
0.0
 11
80.93772199999989
 21
39.544396
 31
0.0
  0
LINE
  5
729D
330
A
100
AcDbEntity
  8
0
  6
Continuous
 62
     7
100
AcDbLine
 10
80.93772199999989
 20
39.544396
 30
0.0
 11
80.889185
 21
39.4534769999998
 31
0.0
  0
LINE
  5
729E
330
A
100
AcDbEntity
  8
0
  6
Continuous
 62
     7
100
AcDbLine
 10
80.889185
 20
39.4534769999998
 30
0.0
 11
80.82336700000018
 21
39.36087699999973
 31
0.0
  0
LINE
  5
729F
330
A
100
AcDbEntity
  8
0
  6
Continuous
 62
     7
100
AcDbLine
 10
80.82336700000018
 20
39.36087699999973
 30
0.0
 11
80.74134300000014
 21
39.2710219999999
 31
0.0
  0
ARC
  5
72A0
330
A
100
AcDbEntity
  8
0
  6
Continuous
 62
     7
100
AcDbCircle
 10
79.54806239731283
 20
40.67466945323269
 30
0.0
 40
1.842320485071739
100
AcDbArc
 50
268.5050999548098
 51
310.3688082178292
  0
CIRCLE
  5
7336
330
A
100
AcDbEntity
  8
0
  6
CENTER
 62
     1
100
AcDbCircle
 10
0.0
 20
0.0
 30
0.0
 40
10.0
  0
LINE
  5
7337
330
A
100
AcDbEntity
  8
0
  6
CENTER
 62
     1
100
AcDbLine
 10
-14.03999999999996
 20
0.0000000000002274
 30
0.0
 11
14.03999999999996
 21
0.0000000000002274
 31
0.0
  0
LINE
  5
7338
330
A
100
AcDbEntity
  8
0
  6
CENTER
 62
     1
100
AcDbLine
 10
0.0
 20
-14.0400000000003
 30
0.0
 11
0.0
 21
14.04000000000019
 31
0.0
  0
CIRCLE
  5
7339
330
A
100
AcDbEntity
  8
0
  6
CENTER
 62
     1
100
AcDbCircle
 10
45.0
 20
0.0
 30
0.0
 40
10.0
  0
LINE
  5
733A
330
A
100
AcDbEntity
  8
0
  6
CENTER
 62
     1
100
AcDbLine
 10
30.96000000000004
 20
0.0000000000002274
 30
0.0
 11
59.03999999999996
 21
0.0000000000002274
 31
0.0
  0
LINE
  5
733B
330
A
100
AcDbEntity
  8
0
  6
CENTER
 62
     1
100
AcDbLine
 10
45.0
 20
-14.0400000000003
 30
0.0
 11
45.0
 21
14.04000000000019
 31
0.0
  0
ENDSEC
  0
SECTION
  2
OBJECTS
  0
DICTIONARY
  5
19
330
0
100
AcDbDictionary
281
     1
  3
ACAD_COLOR
350
3988
  3
ACAD_GROUP
350
1A
  3
ACAD_LAYOUT
350
1E
  3
ACAD_MATERIAL
350
395E
  3
ACAD_MLEADERSTYLE
350
39AD
  3
ACAD_MLINESTYLE
350
1B
  3
ACAD_PLOTSETTINGS
350
22
  3
ACAD_PLOTSTYLENAME
350
1F
  3
ACAD_SCALELIST
350
398B
  3
ACAD_TABLESTYLE
350
3989
  3
ACAD_VISUALSTYLE
350
3977
  3
ACAD_WIPEOUT_VARS
350
23
  3
ACDB_RECOMPOSE_DATA
350
72EC
  3
AcDbVariableDictionary
350
72CB
  3
ASE_INDEX_DICTIONARY
350
72C6
  3
DWGPROPS
350
736B
  0
DICTIONARY
  5
72C9
330
14
100
AcDbDictionary
280
     1
281
     1
  3
ADSK_XREC_LAYER_RECONCILED
360
72CA
  0
DICTIONARY
  5
39B7
330
A
100
AcDbDictionary
280
     1
281
     1
  3
ACAD_SORTENTS
360
39B8
  0
DICTIONARY
  5
3988
102
{ACAD_REACTORS
330
19
102
}
330
19
100
AcDbDictionary
281
     1
  0
DICTIONARY
  5
1A
102
{ACAD_REACTORS
330
19
102
}
330
19
100
AcDbDictionary
281
     1
  0
DICTIONARY
  5
1E
102
{ACAD_REACTORS
330
19
102
}
330
19
100
AcDbDictionary
281
     1
  3
Layout1
350
21
  3
Model
350
20
  0
DICTIONARY
  5
395E
102
{ACAD_REACTORS
330
19
102
}
330
19
100
AcDbDictionary
281
     1
  3
ByBlock
350
3967
  3
ByLayer
350
395F
  3
Global
350
396F
  0
DICTIONARY
  5
39AD
102
{ACAD_REACTORS
330
19
102
}
330
19
100
AcDbDictionary
281
     1
  3
Standard
350
39AE
  0
DICTIONARY
  5
1B
102
{ACAD_REACTORS
330
19
102
}
330
19
100
AcDbDictionary
281
     1
  3
Standard
350
1C
  0
DICTIONARY
  5
22
102
{ACAD_REACTORS
330
19
102
}
330
19
100
AcDbDictionary
281
     1
  0
ACDBDICTIONARYWDFLT
  5
1F
102
{ACAD_REACTORS
330
19
102
}
330
19
100
AcDbDictionary
281
     1
  3
Normal
350
1D
100
AcDbDictionaryWithDefault
340
1D
  0
DICTIONARY
  5
398B
102
{ACAD_REACTORS
330
19
102
}
330
19
100
AcDbDictionary
281
     1
  3
A0
350
398C
  3
A1
350
398D
  3
A2
350
398E
  3
A3
350
398F
  3
A4
350
3990
  3
A5
350
3991
  3
A6
350
3992
  3
A7
350
3993
  3
A8
350
3994
  3
A9
350
3995
  3
B0
350
3996
  3
B1
350
3997
  3
B2
350
3998
  3
B3
350
3999
  3
B4
350
399A
  3
B5
350
399B
  3
B6
350
399C
  3
B7
350
399D
  3
B8
350
399E
  3
B9
350
399F
  3
C0
350
39A0
  3
C1
350
39A1
  3
C2
350
39A2
  3
C3
350
39A3
  3
C4
350
39A4
  3
C5
350
39A5
  3
C6
350
39A6
  3
C7
350
39A7
  3
C8
350
39A8
  3
C9
350
39A9
  3
D0
350
39AA
  3
D1
350
39AB
  3
D2
350
39AC
  0
DICTIONARY
  5
3989
102
{ACAD_REACTORS
330
19
102
}
330
19
100
AcDbDictionary
281
     1
  3
Standard
350
398A
  0
DICTIONARY
  5
3977
102
{ACAD_REACTORS
330
19
102
}
330
19
100
AcDbDictionary
281
     1
  3
2dWireframe
350
397D
  3
3D Hidden
350
397F
  3
3dWireframe
350
397E
  3
Basic
350
397C
  3
Brighten
350
3983
  3
ColorChange
350
3987
  3
Conceptual
350
3980
  3
Dim
350
3982
  3
Facepattern
350
3986
  3
Flat
350
3978
  3
FlatWithEdges
350
3979
  3
Gouraud
350
397A
  3
GouraudWithEdges
350
397B
  3
Linepattern
350
3985
  3
Realistic
350
3981
  3
Thicken
350
3984
  0
WIPEOUTVARIABLES
  5
23
330
19
100
AcDbWipeoutVariables
 70
     1
  0
XRECORD
  5
72EC
102
{ACAD_REACTORS
330
19
102
}
330
19
100
AcDbXrecord
280
     1
 90
        1
330
398A
  0
DICTIONARY
  5
72CB
102
{ACAD_REACTORS
330
19
102
}
330
19
100
AcDbDictionary
281
     1
  3
CANNOSCALE
350
72CE
  3
CMLEADERSTYLE
350
72CD
  3
CTABLESTYLE
350
72CC
  3
DIMASSOC
350
72D1
  3
INDEXCTL
350
72D0
  3
SORTENTS
350
72CF
  0
DICTIONARY
  5
72C6
102
{ACAD_REACTORS
330
19
102
}
330
19
100
AcDbDictionary
281
     1
  3
ASEBlockHierarchyIndexRecord
350
72C8
1001
DCO15
1040
1687090590.691
  0
XRECORD
  5
736B
102
{ACAD_REACTORS
330
19
102
}
330
19
100
AcDbXrecord
280
     1
  1
DWGPROPS COOKIE
  2

  3

  4

  6

  7

  8
renzo.ceresoli
  9

300
=
301
=
302
=
303
=
304
=
305
=
306
=
307
=
308
=
309
=
 40
0.0296756597222222
 41
2455329.702198484
 42
2455336.715547813
  1

 90
        0
  0
XRECORD
  5
72CA
102
{ACAD_REACTORS
330
72C9
102
}
330
72C9
100
AcDbXrecord
280
     1
290
     1
  0
SORTENTSTABLE
  5
39B8
102
{ACAD_REACTORS
330
39B7
102
}
330
39B7
100
AcDbSortentsTable
330
A
331
660A
  5
41EC
331
6594
  5
42C4
331
6431
  5
4395
331
119B
  5
4874
331
6470
  5
43CC
331
6478
  5
43D4
331
64E7
  5
4401
331
11A3
  5
487C
331
6439
  5
439D
331
6526
  5
4341
331
652E
  5
4349
331
6480
  5
43DC
331
64EF
  5
4409
331
11AB
  5
4884
331
640A
  5
4435
331
6441
  5
43A5
331
6536
  5
4351
331
6488
  5
43E4
331
11B3
  5
488C
331
6412
  5
443D
331
64F7
  5
4411
331
7290
  5
7290
331
71DB
  5
71DB
331
64FF
  5
4419
331
653E
  5
4359
331
721A
  5
721A
331
7251
  5
7251
331
7259
  5
7259
331
7298
  5
7298
331
71E3
  5
71E3
331
7222
  5
7222
331
722A
  5
722A
331
7261
  5
7261
331
71EB
  5
71EB
331
72A0
  5
72A0
331
7232
  5
7232
331
7269
  5
7269
331
71F3
  5
71F3
331
6649
  5
4267
331
66A0
  5
4296
331
659C
  5
42CC
331
65D3
  5
42FE
331
655D
  5
4374
331
6612
  5
4210
331
66E7
  5
419E
331
6736
  5
41B9
331
6651
  5
426F
331
66A8
  5
417A
331
65A4
  5
42D4
331
65DB
  5
4306
331
6565
  5
437C
331
661A
  5
423C
331
66EF
  5
41A1
331
673E
  5
41C1
331
6622
  5
4244
331
656D
  5
4384
331
65AC
  5
42DC
331
65E3
  5
430E
331
66B0
  5
4182
331
65EB
  5
4316
331
662A
  5
424C
331
6575
  5
4299
331
65B4
  5
42E4
331
6661
  5
4279
331
6746
  5
41C9
331
674E
  5
41D1
331
66FF
  5
41A6
331
641A
  5
4445
331
6451
  5
43B1
331
1184
  5
485D
331
11BB
  5
4894
331
6490
  5
43EC
331
6498
  5
43F4
331
6422
  5
444D
331
6507
  5
4322
331
6546
  5
435D
331
650F
  5
432A
331
63D3
  5
4426
331
642A
  5
438E
331
1194
  5
486D
331
6461
  5
43BD
331
654E
  5
4365
331
6556
  5
436D
331
6469
  5
43C5
331
63DB
  5
442E
331
6517
  5
4332
331
651F
  5
433A
331
71FB
  5
71FB
331
723A
  5
723A
331
7271
  5
7271
331
7279
  5
7279
331
7203
  5
7203
331
7242
  5
7242
331
7281
  5
7281
331
720B
  5
720B
331
724A
  5
724A
331
7289
  5
7289
331
7213
  5
7213
331
6669
  5
427C
331
65F3
  5
431E
331
6632
  5
4254
331
657D
  5
42A1
331
65BC
  5
42EC
331
6671
  5
4284
331
66D0
  5
4191
331
65FB
  5
41DD
331
6585
  5
42A9
331
663A
  5
4258
331
6707
  5
41AE
331
6642
  5
4260
331
6679
  5
428C
331
71D6
  5
71D6
331
658D
  5
42B1
331
65CC
  5
42F7
331
6603
  5
41E5
331
660B
  5
41ED
331
6595
  5
42C5
331
6727
  5
41B3
331
6432
  5
4396
331
119C
  5
4875
331
6471
  5
43CD
331
6527
  5
4342
331
643A
  5
439E
331
11A4
  5
487D
331
6479
  5
43D5
331
64E8
  5
4402
331
64F0
  5
440A
331
652F
  5
434A
331
640B
  5
4436
331
6442
  5
43A6
331
11AC
  5
4885
331
6481
  5
43DD
331
6489
  5
43E5
331
11B4
  5
488D
331
6413
  5
443E
331
64F8
  5
4412
331
6537
  5
4352
331
721B
  5
721B
331
7252
  5
7252
331
653F
  5
435A
331
71DC
  5
71DC
331
7291
  5
7291
331
7299
  5
7299
331
7223
  5
7223
331
725A
  5
725A
331
71E4
  5
71E4
331
71EC
  5
71EC
331
722B
  5
722B
331
7262
  5
7262
331
726A
  5
726A
331
71F4
  5
71F4
331
7233
  5
7233
331
6613
  5
4211
331
664A
  5
4268
331
655E
  5
4375
331
659D
  5
42CD
331
65D4
  5
42FF
331
66A1
  5
4173
331
66A9
  5
417B
331
65DC
  5
4307
331
661B
  5
423D
331
6566
  5
437D
331
65A5
  5
42D5
331
6652
  5
4270
331
6737
  5
41BA
331
673F
  5
41C2
331
66B1
  5
4183
331
65AD
  5
42DD
331
65E4
  5
430F
331
656E
  5
4385
331
6623
  5
4245
331
66F0
  5
41A2
331
6747
  5
41CA
331
6662
  5
427A
331
66C1
  5
418B
331
65B5
  5
42E5
331
65EC
  5
4317
331
6576
  5
429A
331
662B
  5
424D
331
674F
  5
41D2
331
6491
  5
43ED
331
6500
  5
441A
331
11BC
  5
4895
331
641B
  5
4446
331
1185
  5
485E
331
6452
  5
43B2
331
6547
  5
435E
331
645A
  5
43B6
331
6499
  5
43F5
331
6423
  5
444E
331
6508
  5
4323
331
6510
  5
432B
331
654F
  5
4366
331
642B
  5
438F
331
6462
  5
43BE
331
1195
  5
486E
331
63D4
  5
4427
331
64C1
  5
43FD
331
6518
  5
4333
331
646A
  5
43C6
331
6557
  5
436E
331
723B
  5
723B
331
7272
  5
7272
331
71FC
  5
71FC
331
7243
  5
7243
331
727A
  5
727A
331
7204
  5
7204
331
720C
  5
720C
331
724B
  5
724B
331
7282
  5
7282
331
728A
  5
728A
331
7214
  5
7214
331
6700
  5
41A7
331
6633
  5
4255
331
666A
  5
427D
331
657E
  5
42A2
331
65BD
  5
42ED
331
65F4
  5
431F
331
66D1
  5
4192
331
6708
  5
41AF
331
65FC
  5
41DE
331
6586
  5
42AA
331
663B
  5
4259
331
6672
  5
4285
331
667A
  5
428D
331
71D7
  5
71D7
331
6604
  5
41E6
331
6643
  5
4261
331
658E
  5
42B2
331
65CD
  5
42F8
331
669A
  5
4290
331
660C
  5
41EE
331
6596
  5
42C6
331
6728
  5
41B4
331
6520
  5
433B
331
6433
  5
4397
331
119D
  5
4876
331
6472
  5
43CE
331
647A
  5
43D6
331
64E9
  5
4403
331
11A5
  5
487E
331
643B
  5
439F
331
6528
  5
4343
331
6530
  5
434B
331
6443
  5
43A7
331
6482
  5
43DE
331
11AD
  5
4886
331
640C
  5
4437
331
64F1
  5
440B
331
6538
  5
4353
331
648A
  5
43E6
331
11B5
  5
488E
331
6414
  5
443F
331
64F9
  5
4413
331
7292
  5
7292
331
71DD
  5
71DD
331
721C
  5
721C
331
7253
  5
7253
331
725B
  5
725B
331
729A
  5
729A
331
71E5
  5
71E5
331
7224
  5
7224
331
722C
  5
722C
331
7263
  5
7263
331
71ED
  5
71ED
331
7234
  5
7234
331
726B
  5
726B
331
71F5
  5
71F5
331
664B
  5
4269
331
66A2
  5
4174
331
659E
  5
42CE
331
65D5
  5
4300
331
655F
  5
4376
331
6614
  5
4236
331
6738
  5
41BB
331
661C
  5
423E
331
6653
  5
4271
331
65A6
  5
42D6
331
65DD
  5
4308
331
66AA
  5
417C
331
6567
  5
437E
331
6740
  5
41C3
331
6624
  5
4246
331
656F
  5
4386
331
65AE
  5
42DE
331
65E5
  5
4310
331
66B2
  5
4184
331
66C2
  5
418C
331
65ED
  5
4318
331
662C
  5
424E
331
6577
  5
429B
331
65B6
  5
42E6
331
6748
  5
41CB
331
6501
  5
441B
331
6540
  5
435B
331
641C
  5
4447
331
6453
  5
43B3
331
11BD
  5
4896
331
6492
  5
43EE
331
649A
  5
43F6
331
6509
  5
4324
331
6424
  5
444F
331
645B
  5
43B7
331
6548
  5
435F
331
6550
  5
4367
331
6511
  5
432C
331
63D5
  5
4428
331
642C
  5
4390
331
1196
  5
486F
331
6463
  5
43BF
331
646B
  5
43C7
331
6519
  5
4334
331
71FD
  5
71FD
331
723C
  5
723C
331
7273
  5
7273
331
727B
  5
727B
331
7205
  5
7205
331
7244
  5
7244
331
724C
  5
724C
331
7283
  5
7283
331
720D
  5
720D
331
728B
  5
728B
331
7215
  5
7215
331
6750
  5
41D3
331
666B
  5
427E
331
65BE
  5
42EE
331
65F5
  5
4320
331
657F
  5
42A3
331
6701
  5
41A8
331
6709
  5
41B0
331
6673
  5
4286
331
66D2
  5
4193
331
65FD
  5
41DF
331
6587
  5
42AB
331
663C
  5
425A
331
6644
  5
4262
331
658F
  5
42B3
331
65CE
  5
42F9
331
6605
  5
41E7
331
6729
  5
41B5
331
660D
  5
41EF
331
6597
  5
42C7
331
669B
  5
4291
331
6521
  5
433C
331
6434
  5
4398
331
119E
  5
4877
331
6473
  5
43CF
331
64EA
  5
4404
331
6529
  5
4344
331
643C
  5
43A0
331
11A6
  5
487F
331
647B
  5
43D7
331
64F2
  5
440C
331
6531
  5
434C
331
640D
  5
4438
331
6444
  5
43A8
331
11AE
  5
4887
331
6483
  5
43DF
331
648B
  5
43E7
331
64FA
  5
4414
331
11B6
  5
488F
331
6415
  5
4440
331
644C
  5
43AC
331
6539
  5
4354
331
721D
  5
721D
331
7254
  5
7254
331
71DE
  5
71DE
331
7293
  5
7293
331
729B
  5
729B
331
71E6
  5
71E6
331
7225
  5
7225
331
725C
  5
725C
331
71EE
  5
71EE
331
722D
  5
722D
331
7264
  5
7264
331
726C
  5
726C
331
71F6
  5
71F6
331
7235
  5
7235
331
6558
  5
436F
331
66A3
  5
4175
331
6615
  5
4237
331
664C
  5
426A
331
6560
  5
4377
331
659F
  5
42CF
331
65D6
  5
4301
331
66AB
  5
417D
331
65DE
  5
4309
331
661D
  5
423F
331
6568
  5
437F
331
65A7
  5
42D7
331
6654
  5
4272
331
6739
  5
41BC
331
6741
  5
41C4
331
66B3
  5
4185
331
65AF
  5
42DF
331
65E6
  5
4311
331
6570
  5
4387
331
6625
  5
4247
331
6749
  5
41CC
331
662D
  5
424F
331
65B7
  5
42E7
331
65EE
  5
4319
331
66C3
  5
418D
331
6454
  5
43B4
331
6493
  5
43EF
331
641D
  5
4448
331
6502
  5
441C
331
1187
  5
4860
331
6549
  5
4360
331
645C
  5
43B8
331
649B
  5
43F7
331
63CE
  5
4421
331
6425
  5
4450
331
650A
  5
4325
331
6512
  5
432D
331
642D
  5
4391
331
6464
  5
43C0
331
6551
  5
4368
331
1197
  5
4870
331
63D6
  5
4429
331
651A
  5
4335
331
646C
  5
43C8
331
723D
  5
723D
331
7274
  5
7274
331
71FE
  5
71FE
331
7245
  5
7245
331
727C
  5
727C
331
7206
  5
7206
331
720E
  5
720E
331
724D
  5
724D
331
7284
  5
7284
331
728C
  5
728C
331
7216
  5
7216
331
6578
  5
429C
331
6702
  5
41A9
331
666C
  5
427F
331
6751
  5
41D4
331
6580
  5
42A4
331
65BF
  5
42EF
331
65F6
  5
4321
331
66D3
  5
4194
331
670A
  5
41B1
331
65FE
  5
41E0
331
6588
  5
42AC
331
663D
  5
425B
331
6674
  5
4287
331
65CF
  5
42FA
331
6606
  5
41E8
331
6590
  5
42B4
331
6645
  5
4263
331
669C
  5
4292
331
660E
  5
420C
331
6522
  5
433D
331
6435
  5
4399
331
119F
  5
4878
331
6474
  5
43D0
331
647C
  5
43D8
331
64EB
  5
4405
331
11A7
  5
4880
331
643D
  5
43A1
331
652A
  5
4345
331
6532
  5
434D
331
6445
  5
43A9
331
6484
  5
43E0
331
11AF
  5
4888
331
640E
  5
4439
331
64F3
  5
440D
331
64FB
  5
4415
331
653A
  5
4355
331
644D
  5
43AD
331
648C
  5
43E8
331
11B7
  5
4890
331
6416
  5
4441
331
7255
  5
7255
331
7294
  5
7294
331
71DF
  5
71DF
331
721E
  5
721E
331
725D
  5
725D
331
729C
  5
729C
331
71E7
  5
71E7
331
7226
  5
7226
331
722E
  5
722E
331
7265
  5
7265
331
71EF
  5
71EF
331
71F7
  5
71F7
331
7236
  5
7236
331
726D
  5
726D
331
6559
  5
4370
331
6598
  5
42C8
331
664D
  5
426B
331
66A4
  5
4176
331
65A0
  5
42D0
331
65D7
  5
4302
331
6561
  5
4378
331
6616
  5
4238
331
673A
  5
41BD
331
661E
  5
4240
331
6655
  5
4273
331
6569
  5
4380
331
65A8
  5
42D8
331
65DF
  5
430A
331
66AC
  5
417E
331
66B4
  5
4186
331
6626
  5
4248
331
6742
  5
41C5
331
6571
  5
4388
331
65B0
  5
42E0
331
65E7
  5
4312
331
65EF
  5
431A
331
662E
  5
4250
331
674A
  5
41CD
331
6503
  5
441D
331
641E
  5
4449
331
1188
  5
4861
331
6494
  5
43F0
331
649C
  5
43F8
331
650B
  5
4326
331
63CF
  5
4422
331
6426
  5
438A
331
645D
  5
43B9
331
654A
  5
4361
331
6552
  5
4369
331
6465
  5
43C1
331
63D7
  5
442A
331
642E
  5
4392
331
6513
  5
432E
331
646D
  5
43C9
331
651B
  5
4336
331
71FF
  5
71FF
331
723E
  5
723E
331
7275
  5
7275
331
727D
  5
727D
331
7207
  5
7207
331
7246
  5
7246
331
724E
  5
724E
331
7285
  5
7285
331
720F
  5
720F
331
728D
  5
728D
331
7217
  5
7217
331
6579
  5
429D
331
65B8
  5
42E8
331
6752
  5
41D5
331
666D
  5
4280
331
65C0
  5
42F0
331
65F7
  5
41D9
331
6581
  5
42A5
331
6703
  5
41AA
331
663E
  5
425C
331
6675
  5
4288
331
65FF
  5
41E1
331
66D4
  5
4195
331
6589
  5
42AD
331
6646
  5
4264
331
6591
  5
42B5
331
6607
  5
41E9
331
660F
  5
420D
331
669D
  5
4293
331
1198
  5
4871
331
6523
  5
433E
331
6436
  5
439A
331
11A0
  5
4879
331
6475
  5
43D1
331
64EC
  5
4406
331
652B
  5
4346
331
6407
  5
4432
331
643E
  5
43A2
331
11A8
  5
4881
331
647D
  5
43D9
331
64F4
  5
440E
331
6533
  5
434E
331
640F
  5
443A
331
6446
  5
43AA
331
11B0
  5
4889
331
6485
  5
43E1
331
71D8
  5
71D8
331
648D
  5
43E9
331
64FC
  5
4416
331
6417
  5
4442
331
644E
  5
43AE
331
653B
  5
4356
331
721F
  5
721F
331
7256
  5
7256
331
71E0
  5
71E0
331
7295
  5
7295
331
729D
  5
729D
331
71E8
  5
71E8
331
7227
  5
7227
331
725E
  5
725E
331
7266
  5
7266
331
71F0
  5
71F0
331
722F
  5
722F
331
726E
  5
726E
331
7237
  5
7237
331
655A
  5
4371
331
6599
  5
42C9
331
65D0
  5
42FB
331
66A5
  5
4177
331
66E4
  5
419B
331
65D8
  5
4303
331
6617
  5
4239
331
6562
  5
4379
331
65A1
  5
42D1
331
664E
  5
426C
331
673B
  5
41BE
331
66AD
  5
417F
331
65E0
  5
430B
331
661F
  5
4241
331
656A
  5
4381
331
65A9
  5
42D9
331
6656
  5
4274
331
6743
  5
41C6
331
66B5
  5
4187
331
65B1
  5
42E1
331
65E8
  5
4313
331
6572
  5
4389
331
6627
  5
4249
331
662F
  5
4251
331
674B
  5
41CE
331
11B8
  5
4891
331
6495
  5
43F1
331
641F
  5
444A
331
6504
  5
441E
331
650C
  5
4327
331
654B
  5
4362
331
645E
  5
43BA
331
649D
  5
43F9
331
1191
  5
486A
331
63D0
  5
4423
331
6427
  5
438B
331
6514
  5
432F
331
642F
  5
4393
331
6466
  5
43C2
331
6553
  5
436A
331
63D8
  5
442B
331
651C
  5
4337
331
71F8
  5
71F8
331
646E
  5
43CA
331
723F
  5
723F
331
7276
  5
7276
331
7200
  5
7200
331
7208
  5
7208
331
7247
  5
7247
331
727E
  5
727E
331
7210
  5
7210
331
724F
  5
724F
331
7286
  5
7286
331
728E
  5
728E
331
657A
  5
429E
331
65B9
  5
42E9
331
65F0
  5
431B
331
6704
  5
41AB
331
666E
  5
4281
331
6753
  5
41D6
331
6582
  5
42A6
331
65C1
  5
42F1
331
65F8
  5
41DA
331
66D5
  5
4196
331
6600
  5
41E2
331
663F
  5
425D
331
658A
  5
42AE
331
65C9
  5
42F4
331
6676
  5
4289
331
66DD
  5
4199
331
6608
  5
41EA
331
6592
  5
42B6
331
6647
  5
4265
331
669E
  5
4294
331
1199
  5
4872
331
6476
  5
43D2
331
64E5
  5
43FF
331
6437
  5
439B
331
6524
  5
433F
331
11A1
  5
487A
331
647E
  5
43DA
331
64ED
  5
4407
331
11A9
  5
4882
331
6408
  5
4433
331
643F
  5
43A3
331
652C
  5
4347
331
6534
  5
434F
331
6486
  5
43E2
331
11B1
  5
488A
331
6410
  5
443B
331
64F5
  5
440F
331
71D9
  5
71D9
331
64FD
  5
4417
331
653C
  5
4357
331
7218
  5
7218
331
644F
  5
43AF
331
648E
  5
43EA
331
7257
  5
7257
331
7296
  5
7296
331
71E1
  5
71E1
331
7220
  5
7220
331
725F
  5
725F
331
729E
  5
729E
331
71E9
  5
71E9
331
7228
  5
7228
331
7230
  5
7230
331
7267
  5
7267
331
71F1
  5
71F1
331
726F
  5
726F
331
65D1
  5
42FC
331
6610
  5
420E
331
655B
  5
4372
331
659A
  5
42CA
331
6734
  5
41B7
331
664F
  5
426D
331
66A6
  5
4178
331
65A2
  5
42D2
331
65D9
  5
4304
331
6563
  5
437A
331
6618
  5
423A
331
66E5
  5
419C
331
673C
  5
41BF
331
6620
  5
4242
331
6657
  5
4275
331
656B
  5
4382
331
65AA
  5
42DA
331
65E1
  5
430C
331
66AE
  5
4180
331
66B6
  5
4188
331
65E9
  5
4314
331
6628
  5
424A
331
6573
  5
4297
331
65B2
  5
42E2
331
665F
  5
4277
331
6744
  5
41C7
331
674C
  5
41CF
331
66FD
  5
41A4
331
6418
  5
4443
331
11B9
  5
4892
331
6505
  5
441F
331
6420
  5
444B
331
6496
  5
43F2
331
649E
  5
43FA
331
650D
  5
4328
331
63D1
  5
4424
331
6428
  5
438C
331
1192
  5
486B
331
645F
  5
43BB
331
654C
  5
4363
331
6554
  5
436B
331
6467
  5
43C3
331
63D9
  5
442C
331
6515
  5
4330
331
651D
  5
4338
331
71F9
  5
71F9
331
646F
  5
43CB
331
7238
  5
7238
331
7277
  5
7277
331
7201
  5
7201
331
7240
  5
7240
331
727F
  5
727F
331
7209
  5
7209
331
7248
  5
7248
331
7287
  5
7287
331
7211
  5
7211
331
728F
  5
728F
331
65F1
  5
431C
331
6630
  5
4252
331
657B
  5
429F
331
65BA
  5
42EA
331
6754
  5
41D7
331
666F
  5
4282
331
65C2
  5
42F2
331
65F9
  5
41DB
331
66CE
  5
418F
331
6583
  5
42A7
331
6705
  5
41AC
331
71D4
  5
71D4
331
6640
  5
425E
331
6677
  5
428A
331
658B
  5
42AF
331
65CA
  5
42F5
331
6601
  5
41E3
331
66D6
  5
4197
331
6593
  5
42B7
331
6609
  5
41EB
331
669F
  5
4295
331
119A
  5
4873
331
63F1
  5
4430
331
6430
  5
4394
331
6525
  5
4340
331
6438
  5
439C
331
11A2
  5
487B
331
6477
  5
43D3
331
64E6
  5
4400
331
64EE
  5
4408
331
652D
  5
4348
331
6409
  5
4434
331
6440
  5
43A4
331
11AA
  5
4883
331
647F
  5
43DB
331
6487
  5
43E3
331
6411
  5
443C
331
64F6
  5
4410
331
6535
  5
4350
331
11B2
  5
488B
331
7219
  5
7219
331
7250
  5
7250
331
71DA
  5
71DA
331
648F
  5
43EB
331
64FE
  5
4418
331
653D
  5
4358
331
7221
  5
7221
331
7258
  5
7258
331
71E2
  5
71E2
331
7297
  5
7297
331
729F
  5
729F
331
71EA
  5
71EA
331
7229
  5
7229
331
7260
  5
7260
331
7268
  5
7268
331
71F2
  5
71F2
331
7231
  5
7231
331
6611
  5
420F
331
6648
  5
4266
331
655C
  5
4373
331
659B
  5
42CB
331
65D2
  5
42FD
331
66A7
  5
4179
331
66E6
  5
419D
331
65DA
  5
4305
331
6619
  5
423B
331
6564
  5
437B
331
65A3
  5
42D3
331
6650
  5
426E
331
6735
  5
41B8
331
673D
  5
41C0
331
66AF
  5
4181
331
65E2
  5
430D
331
6621
  5
4243
331
66EE
  5
41A0
331
656C
  5
4383
331
65AB
  5
42DB
331
6745
  5
41C8
331
6660
  5
4278
331
66B7
  5
4189
331
65B3
  5
42E3
331
65EA
  5
4315
331
6574
  5
4298
331
6629
  5
424B
331
66FE
  5
41A5
331
674D
  5
41D0
331
11BA
  5
4893
331
6419
  5
4444
331
6450
  5
43B0
331
6497
  5
43F3
331
6421
  5
444C
331
6506
  5
4420
331
650E
  5
4329
331
654D
  5
4364
331
6429
  5
438D
331
6460
  5
43BC
331
1193
  5
486C
331
63D2
  5
4425
331
649F
  5
43FB
331
6516
  5
4331
331
6468
  5
43C4
331
6555
  5
436C
331
63DA
  5
442D
331
7270
  5
7270
331
651E
  5
4339
331
71FA
  5
71FA
331
7239
  5
7239
331
7241
  5
7241
331
7278
  5
7278
331
7202
  5
7202
331
720A
  5
720A
331
7249
  5
7249
331
7280
  5
7280
331
7288
  5
7288
331
7212
  5
7212
331
6631
  5
4253
331
657C
  5
42A0
331
65BB
  5
42EB
331
65F2
  5
431D
331
66CF
  5
4190
331
6706
  5
41AD
331
65FA
  5
41DC
331
6584
  5
42A8
331
6639
  5
4257
331
6670
  5
4283
331
6755
  5
41D8
331
71D5
  5
71D5
331
6602
  5
41E4
331
6641
  5
425F
331
658C
  5
42B0
331
65CB
  5
42F6
331
6678
  5
428B
  0
LAYOUT
  5
21
102
{ACAD_XDICTIONARY
360
736E
102
}
102
{ACAD_REACTORS
330
1E
102
}
330
1E
100
AcDbPlotSettings
  1

  2

  4

  6

 40
0.0
 41
0.0
 42
0.0
 43
0.0
 44
0.0
 45
0.0
 46
0.0
 47
0.0
 48
0.0
 49
0.0
140
0.0
141
0.0
142
1.0
143
1.0
 70
     0
 72
     0
 73
     0
 74
     0
  7

 75
     0
147
1.0
148
0.0
149
0.0
100
AcDbLayout
  1
Layout1
 70
     0
 71
     1
 10
0.0
 20
0.0
 11
12.0
 21
9.0
 12
0.0
 22
0.0
 32
0.0
 14
1.000000000000000E+20
 24
1.000000000000000E+20
 34
1.000000000000000E+20
 15
-1.000000000000000E+20
 25
-1.000000000000000E+20
 35
-1.000000000000000E+20
146
0.0
 13
0.0
 23
0.0
 33
0.0
 16
1.0
 26
0.0
 36
0.0
 17
0.0
 27
1.0
 37
0.0
 76
     0
330
B
  0
LAYOUT
  5
20
102
{ACAD_XDICTIONARY
360
736C
102
}
102
{ACAD_REACTORS
330
1E
102
}
330
1E
100
AcDbPlotSettings
  1

  2

  4

  6

 40
0.0
 41
0.0
 42
0.0
 43
0.0
 44
0.0
 45
0.0
 46
0.0
 47
0.0
 48
0.0
 49
0.0
140
0.0
141
0.0
142
1.0
143
1.0
 70
  1024
 72
     0
 73
     0
 74
     0
  7

 75
     0
147
1.0
148
0.0
149
0.0
100
AcDbLayout
  1
Model
 70
     0
 71
     0
 10
0.0
 20
0.0
 11
0.0
 21
0.0
 12
0.0
 22
0.0
 32
0.0
 14
0.0
 24
0.0
 34
0.0
 15
0.0
 25
0.0
 35
0.0
146
0.0
 13
0.0
 23
0.0
 33
0.0
 16
0.0
 26
0.0
 36
0.0
 17
0.0
 27
0.0
 37
0.0
 76
     0
330
A
331
15
  0
MATERIAL
  5
3967
102
{ACAD_XDICTIONARY
360
3968
102
}
102
{ACAD_REACTORS
330
395E
102
}
330
395E
100
AcDbMaterial
  1
ByBlock
 72
     0
 43
0.0208333333333333
 43
0.0
 43
0.0
 43
0.0
 43
0.0
 43
0.0208333333333333
 43
0.0
 43
0.0
 43
0.0
 43
0.0
 43
1.0
 43
0.0
 43
0.0
 43
0.0
 43
0.0
 43
1.0
 77
     0
 47
0.0208333333333333
 47
0.0
 47
0.0
 47
0.0
 47
0.0
 47
0.0208333333333333
 47
0.0
 47
0.0
 47
0.0
 47
0.0
 47
1.0
 47
0.0
 47
0.0
 47
0.0
 47
0.0
 47
1.0
171
     0
 49
0.0208333333333333
 49
0.0
 49
0.0
 49
0.0
 49
0.0
 49
0.0208333333333333
 49
0.0
 49
0.0
 49
0.0
 49
0.0
 49
1.0
 49
0.0
 49
0.0
 49
0.0
 49
0.0
 49
1.0
175
     0
142
0.0208333333333333
142
0.0
142
0.0
142
0.0
142
0.0
142
0.0208333333333333
142
0.0
142
0.0
142
0.0
142
0.0
142
1.0
142
0.0
142
0.0
142
0.0
142
0.0
142
1.0
179
     0
144
0.0208333333333333
144
0.0
144
0.0
144
0.0
144
0.0
144
0.0208333333333333
144
0.0
144
0.0
144
0.0
144
0.0
144
1.0
144
0.0
144
0.0
144
0.0
144
0.0
144
1.0
147
0.0208333333333333
147
0.0
147
0.0
147
0.0
147
0.0
147
0.0208333333333333
147
0.0
147
0.0
147
0.0
147
0.0
147
1.0
147
0.0
147
0.0
147
0.0
147
0.0
147
1.0
  0
MATERIAL
  5
395F
102
{ACAD_XDICTIONARY
360
3960
102
}
102
{ACAD_REACTORS
330
395E
102
}
330
395E
100
AcDbMaterial
  1
ByLayer
 72
     0
 43
0.0208333333333333
 43
0.0
 43
0.0
 43
0.0
 43
0.0
 43
0.0208333333333333
 43
0.0
 43
0.0
 43
0.0
 43
0.0
 43
1.0
 43
0.0
 43
0.0
 43
0.0
 43
0.0
 43
1.0
 77
     0
 47
0.0208333333333333
 47
0.0
 47
0.0
 47
0.0
 47
0.0
 47
0.0208333333333333
 47
0.0
 47
0.0
 47
0.0
 47
0.0
 47
1.0
 47
0.0
 47
0.0
 47
0.0
 47
0.0
 47
1.0
171
     0
 49
0.0208333333333333
 49
0.0
 49
0.0
 49
0.0
 49
0.0
 49
0.0208333333333333
 49
0.0
 49
0.0
 49
0.0
 49
0.0
 49
1.0
 49
0.0
 49
0.0
 49
0.0
 49
0.0
 49
1.0
175
     0
142
0.0208333333333333
142
0.0
142
0.0
142
0.0
142
0.0
142
0.0208333333333333
142
0.0
142
0.0
142
0.0
142
0.0
142
1.0
142
0.0
142
0.0
142
0.0
142
0.0
142
1.0
179
     0
144
0.0208333333333333
144
0.0
144
0.0
144
0.0
144
0.0
144
0.0208333333333333
144
0.0
144
0.0
144
0.0
144
0.0
144
1.0
144
0.0
144
0.0
144
0.0
144
0.0
144
1.0
147
0.0208333333333333
147
0.0
147
0.0
147
0.0
147
0.0
147
0.0208333333333333
147
0.0
147
0.0
147
0.0
147
0.0
147
1.0
147
0.0
147
0.0
147
0.0
147
0.0
147
1.0
  0
MATERIAL
  5
396F
102
{ACAD_XDICTIONARY
360
3970
102
}
102
{ACAD_REACTORS
330
395E
102
}
330
395E
100
AcDbMaterial
  1
Global
 72
     0
 43
0.0208333333333333
 43
0.0
 43
0.0
 43
0.0
 43
0.0
 43
0.0208333333333333
 43
0.0
 43
0.0
 43
0.0
 43
0.0
 43
1.0
 43
0.0
 43
0.0
 43
0.0
 43
0.0
 43
1.0
 77
     0
 47
0.0208333333333333
 47
0.0
 47
0.0
 47
0.0
 47
0.0
 47
0.0208333333333333
 47
0.0
 47
0.0
 47
0.0
 47
0.0
 47
1.0
 47
0.0
 47
0.0
 47
0.0
 47
0.0
 47
1.0
171
     0
 49
0.0208333333333333
 49
0.0
 49
0.0
 49
0.0
 49
0.0
 49
0.0208333333333333
 49
0.0
 49
0.0
 49
0.0
 49
0.0
 49
1.0
 49
0.0
 49
0.0
 49
0.0
 49
0.0
 49
1.0
175
     0
142
0.0208333333333333
142
0.0
142
0.0
142
0.0
142
0.0
142
0.0208333333333333
142
0.0
142
0.0
142
0.0
142
0.0
142
1.0
142
0.0
142
0.0
142
0.0
142
0.0
142
1.0
179
     0
144
0.0208333333333333
144
0.0
144
0.0
144
0.0
144
0.0
144
0.0208333333333333
144
0.0
144
0.0
144
0.0
144
0.0
144
1.0
144
0.0
144
0.0
144
0.0
144
0.0
144
1.0
147
0.0208333333333333
147
0.0
147
0.0
147
0.0
147
0.0
147
0.0208333333333333
147
0.0
147
0.0
147
0.0
147
0.0
147
1.0
147
0.0
147
0.0
147
0.0
147
0.0
147
1.0
  0
MLEADERSTYLE
  5
39AE
102
{ACAD_REACTORS
330
39AD
102
}
330
39AD
100
AcDbMLeaderStyle
170
     2
171
     1
172
     0
 90
        2
 40
0.0
 41
0.0
173
     1
 91
-1056964608
340
11
 92
       -2
290
     1
 42
2.0
291
     1
 43
0.36
  3
Standard
 44
4.0
300

342
17
174
     1
178
     6
175
     1
176
     0
 93
-1056964608
 45
4.0
292
     0
297
     0
 46
4.0
 94
-1056964608
 47
1.0
 49
1.0
140
1.0
293
     1
141
0.0
294
     1
177
     0
142
1.0
295
     0
296
     0
143
0.125
1001
ACAD_MLEADERVER
1070
     2
  0
MLINESTYLE
  5
1C
102
{ACAD_REACTORS
330
1B
102
}
330
1B
100
AcDbMlineStyle
  2
STANDARD
 70
     0
  3

 62
     0
 51
90.0
 52
90.0
 71
     2
 49
0.5
 62
   256
  6
BYLAYER
 49
-0.5
 62
   256
  6
BYLAYER
  0
ACDBPLACEHOLDER
  5
1D
102
{ACAD_REACTORS
330
1F
102
}
330
1F
  0
SCALE
  5
398C
102
{ACAD_REACTORS
330
398B
102
}
330
398B
100
AcDbScale
 70
     0
300
1:1
140
1.0
141
1.0
290
     1
  0
SCALE
  5
398D
102
{ACAD_REACTORS
330
398B
102
}
330
398B
100
AcDbScale
 70
     0
300
1:2
140
1.0
141
2.0
290
     0
  0
SCALE
  5
398E
102
{ACAD_REACTORS
330
398B
102
}
330
398B
100
AcDbScale
 70
     0
300
1:4
140
1.0
141
4.0
290
     0
  0
SCALE
  5
398F
102
{ACAD_REACTORS
330
398B
102
}
330
398B
100
AcDbScale
 70
     0
300
1:5
140
1.0
141
5.0
290
     0
  0
SCALE
  5
3990
102
{ACAD_REACTORS
330
398B
102
}
330
398B
100
AcDbScale
 70
     0
300
1:8
140
1.0
141
8.0
290
     0
  0
SCALE
  5
3991
102
{ACAD_REACTORS
330
398B
102
}
330
398B
100
AcDbScale
 70
     0
300
1:10
140
1.0
141
10.0
290
     0
  0
SCALE
  5
3992
102
{ACAD_REACTORS
330
398B
102
}
330
398B
100
AcDbScale
 70
     0
300
1:16
140
1.0
141
16.0
290
     0
  0
SCALE
  5
3993
102
{ACAD_REACTORS
330
398B
102
}
330
398B
100
AcDbScale
 70
     0
300
1:20
140
1.0
141
20.0
290
     0
  0
SCALE
  5
3994
102
{ACAD_REACTORS
330
398B
102
}
330
398B
100
AcDbScale
 70
     0
300
1:30
140
1.0
141
30.0
290
     0
  0
SCALE
  5
3995
102
{ACAD_REACTORS
330
398B
102
}
330
398B
100
AcDbScale
 70
     0
300
1:40
140
1.0
141
40.0
290
     0
  0
SCALE
  5
3996
102
{ACAD_REACTORS
330
398B
102
}
330
398B
100
AcDbScale
 70
     0
300
1:50
140
1.0
141
50.0
290
     0
  0
SCALE
  5
3997
102
{ACAD_REACTORS
330
398B
102
}
330
398B
100
AcDbScale
 70
     0
300
1:100
140
1.0
141
100.0
290
     0
  0
SCALE
  5
3998
102
{ACAD_REACTORS
330
398B
102
}
330
398B
100
AcDbScale
 70
     0
300
2:1
140
2.0
141
1.0
290
     0
  0
SCALE
  5
3999
102
{ACAD_REACTORS
330
398B
102
}
330
398B
100
AcDbScale
 70
     0
300
4:1
140
4.0
141
1.0
290
     0
  0
SCALE
  5
399A
102
{ACAD_REACTORS
330
398B
102
}
330
398B
100
AcDbScale
 70
     0
300
8:1
140
8.0
141
1.0
290
     0
  0
SCALE
  5
399B
102
{ACAD_REACTORS
330
398B
102
}
330
398B
100
AcDbScale
 70
     0
300
10:1
140
10.0
141
1.0
290
     0
  0
SCALE
  5
399C
102
{ACAD_REACTORS
330
398B
102
}
330
398B
100
AcDbScale
 70
     0
300
100:1
140
100.0
141
1.0
290
     0
  0
SCALE
  5
399D
102
{ACAD_REACTORS
330
398B
102
}
330
398B
100
AcDbScale
 70
     0
300
1/128" = 1'-0"
140
0.0078125
141
12.0
290
     0
  0
SCALE
  5
399E
102
{ACAD_REACTORS
330
398B
102
}
330
398B
100
AcDbScale
 70
     0
300
1/64" = 1'-0"
140
0.015625
141
12.0
290
     0
  0
SCALE
  5
399F
102
{ACAD_REACTORS
330
398B
102
}
330
398B
100
AcDbScale
 70
     0
300
1/32" = 1'-0"
140
0.03125
141
12.0
290
     0
  0
SCALE
  5
39A0
102
{ACAD_REACTORS
330
398B
102
}
330
398B
100
AcDbScale
 70
     0
300
1/16" = 1'-0"
140
0.0625
141
12.0
290
     0
  0
SCALE
  5
39A1
102
{ACAD_REACTORS
330
398B
102
}
330
398B
100
AcDbScale
 70
     0
300
3/32" = 1'-0"
140
0.09375
141
12.0
290
     0
  0
SCALE
  5
39A2
102
{ACAD_REACTORS
330
398B
102
}
330
398B
100
AcDbScale
 70
     0
300
1/8" = 1'-0"
140
0.125
141
12.0
290
     0
  0
SCALE
  5
39A3
102
{ACAD_REACTORS
330
398B
102
}
330
398B
100
AcDbScale
 70
     0
300
3/16" = 1'-0"
140
0.1875
141
12.0
290
     0
  0
SCALE
  5
39A4
102
{ACAD_REACTORS
330
398B
102
}
330
398B
100
AcDbScale
 70
     0
300
1/4" = 1'-0"
140
0.25
141
12.0
290
     0
  0
SCALE
  5
39A5
102
{ACAD_REACTORS
330
398B
102
}
330
398B
100
AcDbScale
 70
     0
300
3/8" = 1'-0"
140
0.375
141
12.0
290
     0
  0
SCALE
  5
39A6
102
{ACAD_REACTORS
330
398B
102
}
330
398B
100
AcDbScale
 70
     0
300
1/2" = 1'-0"
140
0.5
141
12.0
290
     0
  0
SCALE
  5
39A7
102
{ACAD_REACTORS
330
398B
102
}
330
398B
100
AcDbScale
 70
     0
300
3/4" = 1'-0"
140
0.75
141
12.0
290
     0
  0
SCALE
  5
39A8
102
{ACAD_REACTORS
330
398B
102
}
330
398B
100
AcDbScale
 70
     0
300
1" = 1'-0"
140
1.0
141
12.0
290
     0
  0
SCALE
  5
39A9
102
{ACAD_REACTORS
330
398B
102
}
330
398B
100
AcDbScale
 70
     0
300
1-1/2" = 1'-0"
140
1.5
141
12.0
290
     0
  0
SCALE
  5
39AA
102
{ACAD_REACTORS
330
398B
102
}
330
398B
100
AcDbScale
 70
     0
300
3" = 1'-0"
140
3.0
141
12.0
290
     0
  0
SCALE
  5
39AB
102
{ACAD_REACTORS
330
398B
102
}
330
398B
100
AcDbScale
 70
     0
300
6" = 1'-0"
140
6.0
141
12.0
290
     0
  0
SCALE
  5
39AC
102
{ACAD_REACTORS
330
398B
102
}
330
398B
100
AcDbScale
 70
     0
300
1'-0" = 1'-0"
140
12.0
141
12.0
290
     0
  0
TABLESTYLE
  5
398A
102
{ACAD_XDICTIONARY
360
72EA
102
}
102
{ACAD_REACTORS
330
3989
102
}
330
3989
100
AcDbTableStyle
  3
Standard
 70
     0
 71
     0
 40
1.5
 41
1.5
280
     0
281
     0
  7
Standard
140
4.5
170
     2
 62
     0
 63
     7
283
     0
274
    -2
284
     1
 64
     0
275
    -2
285
     1
 65
     0
276
    -2
286
     1
 66
     0
277
    -2
287
     1
 67
     0
278
    -2
288
     1
 68
     0
279
    -2
289
     1
 69
     0
  7
Standard
140
6.0
170
     5
 62
     0
 63
     7
283
     0
274
    -2
284
     1
 64
     0
275
    -2
285
     1
 65
     0
276
    -2
286
     1
 66
     0
277
    -2
287
     1
 67
     0
278
    -2
288
     1
 68
     0
279
    -2
289
     1
 69
     0
  7
Standard
140
4.5
170
     5
 62
     0
 63
     7
283
     0
274
    -2
284
     1
 64
     0
275
    -2
285
     1
 65
     0
276
    -2
286
     1
 66
     0
277
    -2
287
     1
 67
     0
278
    -2
288
     1
 68
     0
279
    -2
289
     1
 69
     0
  0
VISUALSTYLE
  5
397D
102
{ACAD_REACTORS
330
3977
102
}
330
3977
100
AcDbVisualStyle
  2
2dWireframe
 70
     4
 71
     0
 72
     2
 73
     0
 90
        0
 40
-0.6
 41
-30.0
 62
     5
 63
     7
 74
     1
 91
        4
 64
     7
 65
   257
 75
     1
175
     1
 42
1.0
 92
        0
 66
   257
 43
1.0
 76
     1
 77
     6
 78
     2
 67
     7
 79
     5
170
     0
171
     0
290
     0
174
     0
 93
        1
 44
0.0
173
     0
291
     0
 45
0.0
1001
ACAD
1000
AcDbSavedByObjectVersion
1070
     0
1000
AcDbSavedByObjectVersion
1070
     0
1000
AcDbSavedByObjectVersion
1070
     0
1000
AcDbSavedByObjectVersion
1070
     0
1000
AcDbSavedByObjectVersion
1070
     0
  0
VISUALSTYLE
  5
397F
102
{ACAD_REACTORS
330
3977
102
}
330
3977
100
AcDbVisualStyle
  2
3D Hidden
 70
     6
 71
     1
 72
     2
 73
     2
 90
        0
 40
-0.6
 41
-30.0
 62
     5
 63
     7
 74
     2
 91
        2
 64
     7
 65
   257
 75
     2
175
     1
 42
40.0
 92
        0
 66
   257
 43
1.0
 76
     1
 77
     6
 78
     2
 67
     7
 79
     3
170
     0
171
     0
290
     0
174
     0
 93
        1
 44
0.0
173
     0
291
     0
 45
0.0
1001
ACAD
1000
AcDbSavedByObjectVersion
1070
     0
1000
AcDbSavedByObjectVersion
1070
     0
1000
AcDbSavedByObjectVersion
1070
     0
1000
AcDbSavedByObjectVersion
1070
     0
1000
AcDbSavedByObjectVersion
1070
     0
  0
VISUALSTYLE
  5
397E
102
{ACAD_REACTORS
330
3977
102
}
330
3977
100
AcDbVisualStyle
  2
3dWireframe
 70
     5
 71
     0
 72
     2
 73
     0
 90
        0
 40
-0.6
 41
-30.0
 62
     5
 63
     7
 74
     1
 91
        4
 64
     7
 65
   257
 75
     1
175
     1
 42
1.0
 92
        0
 66
   257
 43
1.0
 76
     1
 77
     6
 78
     2
 67
     7
 79
     5
170
     0
171
     0
290
     0
174
     0
 93
        1
 44
0.0
173
     0
291
     0
 45
0.0
1001
ACAD
1000
AcDbSavedByObjectVersion
1070
     0
1000
AcDbSavedByObjectVersion
1070
     0
1000
AcDbSavedByObjectVersion
1070
     0
1000
AcDbSavedByObjectVersion
1070
     0
1000
AcDbSavedByObjectVersion
1070
     0
  0
VISUALSTYLE
  5
397C
102
{ACAD_REACTORS
330
3977
102
}
330
3977
100
AcDbVisualStyle
  2
Basic
 70
     7
 71
     1
 72
     0
 73
     1
 90
        0
 40
-0.6
 41
-30.0
 62
     5
 63
     7
 74
     0
 91
        4
 64
     7
 65
   257
 75
     1
175
     1
 42
1.0
 92
        8
 66
     7
 43
1.0
 76
     1
 77
     6
 78
     2
 67
     7
 79
     5
170
     0
171
     0
290
     0
174
     0
 93
        1
 44
0.0
173
     0
291
     1
 45
0.0
1001
ACAD
1000
AcDbSavedByObjectVersion
1070
     0
1000
AcDbSavedByObjectVersion
1070
     0
1000
AcDbSavedByObjectVersion
1070
     0
1000
AcDbSavedByObjectVersion
1070
     0
1000
AcDbSavedByObjectVersion
1070
     0
  0
VISUALSTYLE
  5
3983
102
{ACAD_REACTORS
330
3977
102
}
330
3977
100
AcDbVisualStyle
  2
Brighten
 70
    12
 71
     2
 72
     2
 73
     0
 90
        0
 40
-0.6
 41
-30.0
 62
     5
 63
     7
 74
     1
 91
        4
 64
     7
 65
   257
 75
     1
175
     1
 42
1.0
 92
        8
 66
     7
 43
1.0
 76
     1
 77
     6
 78
     2
 67
     7
 79
     5
170
     0
171
     0
290
     0
174
     0
 93
        1
 44
50.0
173
     0
291
     1
 45
0.0
1001
ACAD
1000
AcDbSavedByObjectVersion
1070
     0
1000
AcDbSavedByObjectVersion
1070
     0
1000
AcDbSavedByObjectVersion
1070
     0
1000
AcDbSavedByObjectVersion
1070
     0
1000
AcDbSavedByObjectVersion
1070
     0
  0
VISUALSTYLE
  5
3987
102
{ACAD_REACTORS
330
3977
102
}
330
3977
100
AcDbVisualStyle
  2
ColorChange
 70
    16
 71
     2
 72
     2
 73
     3
 90
        0
 40
-0.6
 41
-30.0
 62
     5
 63
     8
 74
     1
 91
        4
 64
     7
 65
   257
 75
     1
175
     1
 42
1.0
 92
        8
 66
     8
 43
1.0
 76
     1
 77
     6
 78
     2
 67
     7
 79
     5
170
     0
171
     0
290
     0
174
     0
 93
        1
 44
0.0
173
     0
291
     1
 45
0.0
1001
ACAD
1000
AcDbSavedByObjectVersion
1070
     0
1000
AcDbSavedByObjectVersion
1070
     0
1000
AcDbSavedByObjectVersion
1070
     0
1000
AcDbSavedByObjectVersion
1070
     0
1000
AcDbSavedByObjectVersion
1070
     0
  0
VISUALSTYLE
  5
3980
102
{ACAD_REACTORS
330
3977
102
}
330
3977
100
AcDbVisualStyle
  2
Conceptual
 70
     9
 71
     3
 72
     2
 73
     0
 90
        0
 40
-0.6
 41
-30.0
 62
     5
 63
     7
 74
     2
 91
        2
 64
     7
 65
   257
 75
     1
175
     1
 42
40.0
 92
        8
 66
     7
 43
1.0
 76
     1
 77
     6
 78
     2
 67
     7
 79
     3
170
     0
171
     0
290
     0
174
     0
 93
        1
 44
0.0
173
     0
291
     0
 45
0.0
1001
ACAD
1000
AcDbSavedByObjectVersion
1070
     0
1000
AcDbSavedByObjectVersion
1070
     0
1000
AcDbSavedByObjectVersion
1070
     0
1000
AcDbSavedByObjectVersion
1070
     0
1000
AcDbSavedByObjectVersion
1070
     0
  0
VISUALSTYLE
  5
3982
102
{ACAD_REACTORS
330
3977
102
}
330
3977
100
AcDbVisualStyle
  2
Dim
 70
    11
 71
     2
 72
     2
 73
     0
 90
        0
 40
-0.6
 41
-30.0
 62
     5
 63
     7
 74
     1
 91
        4
 64
     7
 65
   257
 75
     1
175
     1
 42
1.0
 92
        8
 66
     7
 43
1.0
 76
     1
 77
     6
 78
     2
 67
     7
 79
     5
170
     0
171
     0
290
     0
174
     0
 93
        1
 44
-50.0
173
     0
291
     1
 45
0.0
1001
ACAD
1000
AcDbSavedByObjectVersion
1070
     0
1000
AcDbSavedByObjectVersion
1070
     0
1000
AcDbSavedByObjectVersion
1070
     0
1000
AcDbSavedByObjectVersion
1070
     0
1000
AcDbSavedByObjectVersion
1070
     0
  0
VISUALSTYLE
  5
3986
102
{ACAD_REACTORS
330
3977
102
}
330
3977
100
AcDbVisualStyle
  2
Facepattern
 70
    15
 71
     2
 72
     2
 73
     0
 90
        0
 40
-0.6
 41
-30.0
 62
     5
 63
     7
 74
     1
 91
        4
 64
     7
 65
   257
 75
     1
175
     1
 42
1.0
 92
        8
 66
     7
 43
1.0
 76
     1
 77
     6
 78
     2
 67
     7
 79
     5
170
     0
171
     0
290
     0
174
     0
 93
        1
 44
0.0
173
     0
291
     1
 45
0.0
1001
ACAD
1000
AcDbSavedByObjectVersion
1070
     0
1000
AcDbSavedByObjectVersion
1070
     0
1000
AcDbSavedByObjectVersion
1070
     0
1000
AcDbSavedByObjectVersion
1070
     0
1000
AcDbSavedByObjectVersion
1070
     0
  0
VISUALSTYLE
  5
3978
102
{ACAD_REACTORS
330
3977
102
}
330
3977
100
AcDbVisualStyle
  2
Flat
 70
     0
 71
     2
 72
     1
 73
     1
 90
        2
 40
-0.6
 41
30.0
 62
     5
 63
     7
 74
     0
 91
        4
 64
     7
 65
   257
 75
     1
175
     1
 42
1.0
 92
        8
 66
     7
 43
1.0
 76
     1
 77
     6
 78
     2
 67
     7
 79
     5
170
     0
171
     0
290
     0
174
     0
 93
       13
 44
0.0
173
     0
291
     1
 45
0.0
1001
ACAD
1000
AcDbSavedByObjectVersion
1070
     0
1000
AcDbSavedByObjectVersion
1070
     0
1000
AcDbSavedByObjectVersion
1070
     0
1000
AcDbSavedByObjectVersion
1070
     0
1000
AcDbSavedByObjectVersion
1070
     0
  0
VISUALSTYLE
  5
3979
102
{ACAD_REACTORS
330
3977
102
}
330
3977
100
AcDbVisualStyle
  2
FlatWithEdges
 70
     1
 71
     2
 72
     1
 73
     1
 90
        2
 40
-0.6
 41
30.0
 62
     5
 63
     7
 74
     1
 91
        4
 64
     7
 65
   257
 75
     1
175
     1
 42
1.0
 92
        0
 66
   257
 43
1.0
 76
     1
 77
     6
 78
     2
 67
     7
 79
     5
170
     0
171
     0
290
     0
174
     0
 93
       13
 44
0.0
173
     0
291
     1
 45
0.0
1001
ACAD
1000
AcDbSavedByObjectVersion
1070
     0
1000
AcDbSavedByObjectVersion
1070
     0
1000
AcDbSavedByObjectVersion
1070
     0
1000
AcDbSavedByObjectVersion
1070
     0
1000
AcDbSavedByObjectVersion
1070
     0
  0
VISUALSTYLE
  5
397A
102
{ACAD_REACTORS
330
3977
102
}
330
3977
100
AcDbVisualStyle
  2
Gouraud
 70
     2
 71
     2
 72
     2
 73
     1
 90
        2
 40
-0.6
 41
30.0
 62
     5
 63
     7
 74
     0
 91
        4
 64
     7
 65
   257
 75
     1
175
     1
 42
1.0
 92
        0
 66
     7
 43
1.0
 76
     1
 77
     6
 78
     2
 67
     7
 79
     5
170
     0
171
     0
290
     0
174
     0
 93
       13
 44
0.0
173
     0
291
     1
 45
0.0
1001
ACAD
1000
AcDbSavedByObjectVersion
1070
     0
1000
AcDbSavedByObjectVersion
1070
     0
1000
AcDbSavedByObjectVersion
1070
     0
1000
AcDbSavedByObjectVersion
1070
     0
1000
AcDbSavedByObjectVersion
1070
     0
  0
VISUALSTYLE
  5
397B
102
{ACAD_REACTORS
330
3977
102
}
330
3977
100
AcDbVisualStyle
  2
GouraudWithEdges
 70
     3
 71
     2
 72
     2
 73
     1
 90
        2
 40
-0.6
 41
30.0
 62
     5
 63
     7
 74
     1
 91
        4
 64
     7
 65
   257
 75
     1
175
     1
 42
1.0
 92
        0
 66
   257
 43
1.0
 76
     1
 77
     6
 78
     2
 67
     7
 79
     5
170
     0
171
     0
290
     0
174
     0
 93
       13
 44
0.0
173
     0
291
     1
 45
0.0
1001
ACAD
1000
AcDbSavedByObjectVersion
1070
     0
1000
AcDbSavedByObjectVersion
1070
     0
1000
AcDbSavedByObjectVersion
1070
     0
1000
AcDbSavedByObjectVersion
1070
     0
1000
AcDbSavedByObjectVersion
1070
     0
  0
VISUALSTYLE
  5
3985
102
{ACAD_REACTORS
330
3977
102
}
330
3977
100
AcDbVisualStyle
  2
Linepattern
 70
    14
 71
     2
 72
     2
 73
     0
 90
        0
 40
-0.6
 41
-30.0
 62
     5
 63
     7
 74
     1
 91
        4
 64
     7
 65
   257
 75
     7
175
     7
 42
1.0
 92
        8
 66
     7
 43
1.0
 76
     1
 77
     6
 78
     2
 67
     7
 79
     5
170
     0
171
     0
290
     0
174
     0
 93
        1
 44
0.0
173
     0
291
     1
 45
0.0
1001
ACAD
1000
AcDbSavedByObjectVersion
1070
     0
1000
AcDbSavedByObjectVersion
1070
     0
1000
AcDbSavedByObjectVersion
1070
     0
1000
AcDbSavedByObjectVersion
1070
     0
1000
AcDbSavedByObjectVersion
1070
     0
  0
VISUALSTYLE
  5
3981
102
{ACAD_REACTORS
330
3977
102
}
330
3977
100
AcDbVisualStyle
  2
Realistic
 70
     8
 71
     2
 72
     2
 73
     0
 90
        0
 40
-0.6
 41
-30.0
 62
     5
 63
     7
 74
     1
 91
        0
 64
     7
 65
   257
 75
     1
175
     1
 42
1.0
 92
        8
 66
     8
 43
1.0
 76
     1
 77
     6
 78
     2
 67
     7
 79
     5
170
     0
171
     0
290
     0
174
     0
 93
       13
 44
0.0
173
     0
291
     0
 45
0.0
1001
ACAD
1000
AcDbSavedByObjectVersion
1070
     0
1000
AcDbSavedByObjectVersion
1070
     0
1000
AcDbSavedByObjectVersion
1070
     0
1000
AcDbSavedByObjectVersion
1070
     0
1000
AcDbSavedByObjectVersion
1070
     0
  0
VISUALSTYLE
  5
3984
102
{ACAD_REACTORS
330
3977
102
}
330
3977
100
AcDbVisualStyle
  2
Thicken
 70
    13
 71
     2
 72
     2
 73
     0
 90
        0
 40
-0.6
 41
-30.0
 62
     5
 63
     7
 74
     1
 91
        4
 64
     7
 65
   257
 75
     1
175
     1
 42
1.0
 92
       12
 66
     7
 43
1.0
 76
     1
 77
     6
 78
     2
 67
     7
 79
     5
170
     0
171
     0
290
     0
174
     0
 93
        1
 44
0.0
173
     0
291
     1
 45
0.0
1001
ACAD
1000
AcDbSavedByObjectVersion
1070
     0
1000
AcDbSavedByObjectVersion
1070
     0
1000
AcDbSavedByObjectVersion
1070
     0
1000
AcDbSavedByObjectVersion
1070
     0
1000
AcDbSavedByObjectVersion
1070
     0
  0
DICTIONARYVAR
  5
72CE
102
{ACAD_REACTORS
330
72CB
102
}
330
72CB
100
DictionaryVariables
280
     0
  1
1:1
  0
DICTIONARYVAR
  5
72CD
102
{ACAD_REACTORS
330
72CB
102
}
330
72CB
100
DictionaryVariables
280
     0
  1
STANDARD
  0
DICTIONARYVAR
  5
72CC
102
{ACAD_REACTORS
330
72CB
102
}
330
72CB
100
DictionaryVariables
280
     0
  1
STANDARD
  0
DICTIONARYVAR
  5
72D1
102
{ACAD_REACTORS
330
72CB
102
}
330
72CB
100
DictionaryVariables
280
     0
  1
1
  0
DICTIONARYVAR
  5
72D0
102
{ACAD_REACTORS
330
72CB
102
}
330
72CB
100
DictionaryVariables
280
     0
  1
0
  0
DICTIONARYVAR
  5
72CF
102
{ACAD_REACTORS
330
72CB
102
}
330
72CB
100
DictionaryVariables
280
     0
  1
127
  0
XRECORD
  5
72C8
102
{ACAD_REACTORS
330
72C6
102
}
330
72C6
100
AcDbXrecord
280
     1
  0
DICTIONARY
  5
736E
330
21
100
AcDbDictionary
280
     1
281
     1
  3
ACAD_XREC_ROUNDTRIP
360
736F
  0
DICTIONARY
  5
736C
330
20
100
AcDbDictionary
280
     1
281
     1
  3
ACAD_XREC_ROUNDTRIP
360
736D
  0
DICTIONARY
  5
3968
330
3967
100
AcDbDictionary
280
     1
281
     1
  3
ACAD_XREC_ROUNDTRIP
360
72F3
  3
BUMPTILE
360
396A
  3
DIFFUSETILE
360
3969
  3
OPACITYTILE
360
396D
  3
REFLECTIONTILE
360
396C
  3
REFRACTIONTILE
360
396E
  3
SPECULARTILE
360
396B
  0
DICTIONARY
  5
3960
330
395F
100
AcDbDictionary
280
     1
281
     1
  3
ACAD_XREC_ROUNDTRIP
360
72F2
  3
BUMPTILE
360
3962
  3
DIFFUSETILE
360
3961
  3
OPACITYTILE
360
3965
  3
REFLECTIONTILE
360
3964
  3
REFRACTIONTILE
360
3966
  3
SPECULARTILE
360
3963
  0
DICTIONARY
  5
3970
330
396F
100
AcDbDictionary
280
     1
281
     1
  3
ACAD_XREC_ROUNDTRIP
360
72F4
  3
BUMPTILE
360
3972
  3
DIFFUSETILE
360
3971
  3
OPACITYTILE
360
3975
  3
REFLECTIONTILE
360
3974
  3
REFRACTIONTILE
360
3976
  3
SPECULARTILE
360
3973
  0
DICTIONARY
  5
72EA
330
398A
100
AcDbDictionary
280
     1
281
     1
  3
ACAD_ROUNDTRIP_2008_TABLESTYLE_CELLSTYLEMAP
360
736A
  3
ACAD_XREC_ROUNDTRIP
360
7370
  0
XRECORD
  5
736F
102
{ACAD_REACTORS
330
736E
102
}
330
736E
100
AcDbXrecord
280
     1
102
SHADEPLOT
 70
     0
102
SHADEPLOTRESLEVEL
 70
     2
102
SHADEPLOTCUSTOMDPI
 70
   300
  0
XRECORD
  5
736D
102
{ACAD_REACTORS
330
736C
102
}
330
736C
100
AcDbXrecord
280
     1
102
SHADEPLOT
 70
     0
102
SHADEPLOTRESLEVEL
 70
     2
102
SHADEPLOTCUSTOMDPI
 70
   300
  0
XRECORD
  5
72F3
102
{ACAD_REACTORS
330
3968
102
}
330
3968
100
AcDbXrecord
280
     1
102
MATERIAL
148
0.0
149
0.0
149
0.0
 93
        0
 94
      127
282
     0
 72
     0
 77
     0
171
     0
175
     0
179
     0
273
     0
  0
XRECORD
  5
396A
102
{ACAD_REACTORS
330
3968
102
}
330
3968
100
AcDbXrecord
280
     1
270
     1
271
     1
  0
XRECORD
  5
3969
102
{ACAD_REACTORS
330
3968
102
}
330
3968
100
AcDbXrecord
280
     1
270
     1
271
     1
  0
XRECORD
  5
396D
102
{ACAD_REACTORS
330
3968
102
}
330
3968
100
AcDbXrecord
280
     1
270
     1
271
     1
  0
XRECORD
  5
396C
102
{ACAD_REACTORS
330
3968
102
}
330
3968
100
AcDbXrecord
280
     1
270
     1
271
     1
  0
XRECORD
  5
396E
102
{ACAD_REACTORS
330
3968
102
}
330
3968
100
AcDbXrecord
280
     1
270
     1
271
     1
  0
XRECORD
  5
396B
102
{ACAD_REACTORS
330
3968
102
}
330
3968
100
AcDbXrecord
280
     1
270
     1
271
     1
  0
XRECORD
  5
72F2
102
{ACAD_REACTORS
330
3960
102
}
330
3960
100
AcDbXrecord
280
     1
102
MATERIAL
148
0.0
149
0.0
149
0.0
 93
        0
 94
      127
282
     0
 72
     0
 77
     0
171
     0
175
     0
179
     0
273
     0
  0
XRECORD
  5
3962
102
{ACAD_REACTORS
330
3960
102
}
330
3960
100
AcDbXrecord
280
     1
270
     1
271
     1
  0
XRECORD
  5
3961
102
{ACAD_REACTORS
330
3960
102
}
330
3960
100
AcDbXrecord
280
     1
270
     1
271
     1
  0
XRECORD
  5
3965
102
{ACAD_REACTORS
330
3960
102
}
330
3960
100
AcDbXrecord
280
     1
270
     1
271
     1
  0
XRECORD
  5
3964
102
{ACAD_REACTORS
330
3960
102
}
330
3960
100
AcDbXrecord
280
     1
270
     1
271
     1
  0
XRECORD
  5
3966
102
{ACAD_REACTORS
330
3960
102
}
330
3960
100
AcDbXrecord
280
     1
270
     1
271
     1
  0
XRECORD
  5
3963
102
{ACAD_REACTORS
330
3960
102
}
330
3960
100
AcDbXrecord
280
     1
270
     1
271
     1
  0
XRECORD
  5
72F4
102
{ACAD_REACTORS
330
3970
102
}
330
3970
100
AcDbXrecord
280
     1
102
MATERIAL
148
0.0
149
0.0
149
0.0
 93
        0
 94
      127
282
     0
 72
     0
 77
     0
171
     0
175
     0
179
     0
273
     0
  0
XRECORD
  5
3972
102
{ACAD_REACTORS
330
3970
102
}
330
3970
100
AcDbXrecord
280
     1
270
     1
271
     1
  0
XRECORD
  5
3971
102
{ACAD_REACTORS
330
3970
102
}
330
3970
100
AcDbXrecord
280
     1
270
     1
271
     1
  0
XRECORD
  5
3975
102
{ACAD_REACTORS
330
3970
102
}
330
3970
100
AcDbXrecord
280
     1
270
     1
271
     1
  0
XRECORD
  5
3974
102
{ACAD_REACTORS
330
3970
102
}
330
3970
100
AcDbXrecord
280
     1
270
     1
271
     1
  0
XRECORD
  5
3976
102
{ACAD_REACTORS
330
3970
102
}
330
3970
100
AcDbXrecord
280
     1
270
     1
271
     1
  0
XRECORD
  5
3973
102
{ACAD_REACTORS
330
3970
102
}
330
3970
100
AcDbXrecord
280
     1
270
     1
271
     1
  0
CELLSTYLEMAP
  5
736A
102
{ACAD_REACTORS
330
72EA
102
}
330
72EA
100
AcDbCellStyleMap
 90
        3
300
CELLSTYLE
  1
TABLEFORMAT_BEGIN
 90
        5
170
     1
 91
        0
 92
    32768
 62
   257
 93
        1
300
CONTENTFORMAT
  1
CONTENTFORMAT_BEGIN
 90
        0
 91
        0
 92
      512
 93
        0
300

 40
0.0
140
1.0
 94
        5
 62
     0
340
17
144
6.0
309
CONTENTFORMAT_END
171
     1
301
MARGIN
  1
CELLMARGIN_BEGIN
 40
1.5
 40
1.5
 40
1.5
 40
1.5
 40
0.18
 40
0.18
309
CELLMARGIN_END
 94
        6
 95
        1
302
GRIDFORMAT
  1
GRIDFORMAT_BEGIN
 90
        0
 91
        1
 62
     0
 92
       -2
340
0
 93
        0
 40
1.125
309
GRIDFORMAT_END
 95
        2
302
GRIDFORMAT
  1
GRIDFORMAT_BEGIN
 90
        0
 91
        1
 62
     0
 92
       -2
340
0
 93
        0
 40
1.125
309
GRIDFORMAT_END
 95
        4
302
GRIDFORMAT
  1
GRIDFORMAT_BEGIN
 90
        0
 91
        1
 62
     0
 92
       -2
340
0
 93
        0
 40
1.125
309
GRIDFORMAT_END
 95
        8
302
GRIDFORMAT
  1
GRIDFORMAT_BEGIN
 90
        0
 91
        1
 62
     0
 92
       -2
340
0
 93
        0
 40
1.125
309
GRIDFORMAT_END
 95
       16
302
GRIDFORMAT
  1
GRIDFORMAT_BEGIN
 90
        0
 91
        1
 62
     0
 92
       -2
340
0
 93
        0
 40
1.125
309
GRIDFORMAT_END
 95
       32
302
GRIDFORMAT
  1
GRIDFORMAT_BEGIN
 90
        0
 91
        1
 62
     0
 92
       -2
340
0
 93
        0
 40
1.125
309
GRIDFORMAT_END
309
TABLEFORMAT_END
  1
CELLSTYLE_BEGIN
 90
        1
 91
        1
300
_TITLE
309
CELLSTYLE_END
300
CELLSTYLE
  1
TABLEFORMAT_BEGIN
 90
        5
170
     1
 91
        0
 92
        0
 62
   257
 93
        1
300
CONTENTFORMAT
  1
CONTENTFORMAT_BEGIN
 90
        0
 91
        0
 92
      512
 93
        0
300

 40
0.0
140
1.0
 94
        5
 62
     0
340
17
144
4.5
309
CONTENTFORMAT_END
171
     1
301
MARGIN
  1
CELLMARGIN_BEGIN
 40
1.5
 40
1.5
 40
1.5
 40
1.5
 40
0.18
 40
0.18
309
CELLMARGIN_END
 94
        6
 95
        1
302
GRIDFORMAT
  1
GRIDFORMAT_BEGIN
 90
        0
 91
        1
 62
     0
 92
       -2
340
0
 93
        0
 40
1.125
309
GRIDFORMAT_END
 95
        2
302
GRIDFORMAT
  1
GRIDFORMAT_BEGIN
 90
        0
 91
        1
 62
     0
 92
       -2
340
0
 93
        0
 40
1.125
309
GRIDFORMAT_END
 95
        4
302
GRIDFORMAT
  1
GRIDFORMAT_BEGIN
 90
        0
 91
        1
 62
     0
 92
       -2
340
0
 93
        0
 40
1.125
309
GRIDFORMAT_END
 95
        8
302
GRIDFORMAT
  1
GRIDFORMAT_BEGIN
 90
        0
 91
        1
 62
     0
 92
       -2
340
0
 93
        0
 40
1.125
309
GRIDFORMAT_END
 95
       16
302
GRIDFORMAT
  1
GRIDFORMAT_BEGIN
 90
        0
 91
        1
 62
     0
 92
       -2
340
0
 93
        0
 40
1.125
309
GRIDFORMAT_END
 95
       32
302
GRIDFORMAT
  1
GRIDFORMAT_BEGIN
 90
        0
 91
        1
 62
     0
 92
       -2
340
0
 93
        0
 40
1.125
309
GRIDFORMAT_END
309
TABLEFORMAT_END
  1
CELLSTYLE_BEGIN
 90
        2
 91
        1
300
_HEADER
309
CELLSTYLE_END
300
CELLSTYLE
  1
TABLEFORMAT_BEGIN
 90
        5
170
     1
 91
        0
 92
        0
 62
   257
 93
        1
300
CONTENTFORMAT
  1
CONTENTFORMAT_BEGIN
 90
        0
 91
        0
 92
      512
 93
        0
300

 40
0.0
140
1.0
 94
        2
 62
     0
340
17
144
4.5
309
CONTENTFORMAT_END
171
     1
301
MARGIN
  1
CELLMARGIN_BEGIN
 40
1.5
 40
1.5
 40
1.5
 40
1.5
 40
0.18
 40
0.18
309
CELLMARGIN_END
 94
        6
 95
        1
302
GRIDFORMAT
  1
GRIDFORMAT_BEGIN
 90
        0
 91
        1
 62
     0
 92
       -2
340
0
 93
        0
 40
1.125
309
GRIDFORMAT_END
 95
        2
302
GRIDFORMAT
  1
GRIDFORMAT_BEGIN
 90
        0
 91
        1
 62
     0
 92
       -2
340
0
 93
        0
 40
1.125
309
GRIDFORMAT_END
 95
        4
302
GRIDFORMAT
  1
GRIDFORMAT_BEGIN
 90
        0
 91
        1
 62
     0
 92
       -2
340
0
 93
        0
 40
1.125
309
GRIDFORMAT_END
 95
        8
302
GRIDFORMAT
  1
GRIDFORMAT_BEGIN
 90
        0
 91
        1
 62
     0
 92
       -2
340
0
 93
        0
 40
1.125
309
GRIDFORMAT_END
 95
       16
302
GRIDFORMAT
  1
GRIDFORMAT_BEGIN
 90
        0
 91
        1
 62
     0
 92
       -2
340
0
 93
        0
 40
1.125
309
GRIDFORMAT_END
 95
       32
302
GRIDFORMAT
  1
GRIDFORMAT_BEGIN
 90
        0
 91
        1
 62
     0
 92
       -2
340
0
 93
        0
 40
1.125
309
GRIDFORMAT_END
309
TABLEFORMAT_END
  1
CELLSTYLE_BEGIN
 90
        3
 91
        2
300
_DATA
309
CELLSTYLE_END
  0
XRECORD
  5
7370
102
{ACAD_REACTORS
330
72EA
102
}
330
72EA
100
AcDbXrecord
280
     1
102
ACAD_ROUNDTRIP_PRE2007_TABLESTYLE
 90
      512
 91
        0
  1

 92
      512
 93
        0
  2

 94
      512
 95
        0
  3

  0
ENDSEC
  0
EOF
