  0
SECTION
  2
HEADER
  9
$ACADVER
  1
AC1015
  9
$ACADMAINTVER
 70
    20
  9
$DWGCODEPAGE
  3
ANSI_1252
  9
$INSBASE
 10
0.0
 20
0.0
 30
0.0
  9
$EXTMIN
 10
-102.6569641041533
 20
-138.8493174003188
 30
-0.0000000000001833
  9
$EXTMAX
 10
164.5951464457966
 20
165.0271490853493
 30
0.0000000000041685
  9
$LIMMIN
 10
-20.0
 20
-0.021978
  9
$LIMMAX
 10
2645.85
 20
758.35
  9
$ORTHOMODE
 70
     0
  9
$REGENMODE
 70
     1
  9
$FILLMODE
 70
     1
  9
$QTEXTMODE
 70
     0
  9
$MIRRTEXT
 70
     1
  9
$LTSCALE
 40
10.0
  9
$ATTMODE
 70
     1
  9
$TEXTSIZE
 40
0.0
  9
$TRACEWID
 40
0.05
  9
$TEXTSTYLE
  7
Standard
  9
$CLAYER
  8
0
  9
$CELTYPE
  6
Continuous
  9
$CECOLOR
 62
   256
  9
$CELTSCALE
 40
1.0
  9
$DISPSILH
 70
     0
  9
$DIMSCALE
 40
1.0
  9
$DIMASZ
 40
1.25
  9
$DIMEXO
 40
0.0
  9
$DIMDLI
 40
0.38
  9
$DIMRND
 40
0.0
  9
$DIMDLE
 40
0.0
  9
$DIMEXE
 40
0.75
  9
$DIMTP
 40
0.0
  9
$DIMTM
 40
0.0
  9
$DIMTXT
 40
2.5
  9
$DIMCEN
 40
0.09
  9
$DIMTSZ
 40
0.0
  9
$DIMTOL
 70
     0
  9
$DIMLIM
 70
     0
  9
$DIMTIH
 70
     0
  9
$DIMTOH
 70
     0
  9
$DIMSE1
 70
     0
  9
$DIMSE2
 70
     0
  9
$DIMTAD
 70
     1
  9
$DIMZIN
 70
     0
  9
$DIMBLK
  1

  9
$DIMASO
 70
     1
  9
$DIMSHO
 70
     1
  9
$DIMPOST
  1

  9
$DIMAPOST
  1

  9
$DIMALT
 70
     0
  9
$DIMALTD
 70
     2
  9
$DIMALTF
 40
25.4
  9
$DIMLFAC
 40
1.0
  9
$DIMTOFL
 70
     0
  9
$DIMTVP
 40
0.0
  9
$DIMTIX
 70
     0
  9
$DIMSOXD
 70
     0
  9
$DIMSAH
 70
     0
  9
$DIMBLK1
  1

  9
$DIMBLK2
  1

  9
$DIMSTYLE
  2
Standard
  9
$DIMCLRD
 70
     7
  9
$DIMCLRE
 70
     7
  9
$DIMCLRT
 70
     7
  9
$DIMTFAC
 40
0.8
  9
$DIMGAP
 40
1.25
  9
$DIMJUST
 70
     0
  9
$DIMSD1
 70
     0
  9
$DIMSD2
 70
     0
  9
$DIMTOLJ
 70
     1
  9
$DIMTZIN
 70
     0
  9
$DIMALTZ
 70
     0
  9
$DIMALTTZ
 70
     0
  9
$DIMUPT
 70
     0
  9
$DIMDEC
 70
     2
  9
$DIMTDEC
 70
     4
  9
$DIMALTU
 70
     2
  9
$DIMALTTD
 70
     2
  9
$DIMTXSTY
  7
Standard
  9
$DIMAUNIT
 70
     0
  9
$DIMADEC
 70
     0
  9
$DIMALTRND
 40
0.0
  9
$DIMAZIN
 70
     0
  9
$DIMDSEP
 70
     0
  9
$DIMATFIT
 70
     3
  9
$DIMFRAC
 70
     0
  9
$DIMLDRBLK
  1

  9
$DIMLUNIT
 70
     2
  9
$DIMLWD
 70
     0
  9
$DIMLWE
 70
     0
  9
$DIMTMOVE
 70
     0
  9
$LUNITS
 70
     2
  9
$LUPREC
 70
     4
  9
$SKETCHINC
 40
0.1
  9
$FILLETRAD
 40
0.0
  9
$AUNITS
 70
     0
  9
$AUPREC
 70
     0
  9
$MENU
  1
acad
  9
$ELEVATION
 40
0.0
  9
$PELEVATION
 40
0.0
  9
$THICKNESS
 40
0.0
  9
$LIMCHECK
 70
     0
  9
$CHAMFERA
 40
0.0
  9
$CHAMFERB
 40
0.0
  9
$CHAMFERC
 40
0.0
  9
$CHAMFERD
 40
0.0
  9
$SKPOLY
 70
     0
  9
$TDCREATE
 40
2455329.702198484
  9
$TDUCREATE
 40
2455329.618865150
  9
$TDUPDATE
 40
2455336.495168715
  9
$TDUUPDATE
 40
2455336.411835382
  9
$TDINDWG
 40
0.0260582986
  9
$TDUSRTIMER
 40
0.0260570370
  9
$USRTIMER
 70
     1
  9
$ANGBASE
 50
0.0
  9
$ANGDIR
 70
     0
  9
$PDMODE
 70
     0
  9
$PDSIZE
 40
0.0
  9
$PLINEWID
 40
0.0
  9
$SPLFRAME
 70
     0
  9
$SPLINETYPE
 70
     6
  9
$SPLINESEGS
 70
     8
  9
$HANDSEED
  5
784A
  9
$SURFTAB1
 70
     6
  9
$SURFTAB2
 70
     6
  9
$SURFTYPE
 70
     6
  9
$SURFU
 70
     6
  9
$SURFV
 70
     6
  9
$UCSBASE
  2

  9
$UCSNAME
  2

  9
$UCSORG
 10
0.0
 20
0.0
 30
0.0
  9
$UCSXDIR
 10
1.0
 20
0.0
 30
0.0
  9
$UCSYDIR
 10
0.0
 20
1.0
 30
0.0
  9
$UCSORTHOREF
  2

  9
$UCSORTHOVIEW
 70
     0
  9
$UCSORGTOP
 10
0.0
 20
0.0
 30
0.0
  9
$UCSORGBOTTOM
 10
0.0
 20
0.0
 30
0.0
  9
$UCSORGLEFT
 10
0.0
 20
0.0
 30
0.0
  9
$UCSORGRIGHT
 10
0.0
 20
0.0
 30
0.0
  9
$UCSORGFRONT
 10
0.0
 20
0.0
 30
0.0
  9
$UCSORGBACK
 10
0.0
 20
0.0
 30
0.0
  9
$PUCSBASE
  2

  9
$PUCSNAME
  2

  9
$PUCSORG
 10
0.0
 20
0.0
 30
0.0
  9
$PUCSXDIR
 10
1.0
 20
0.0
 30
0.0
  9
$PUCSYDIR
 10
0.0
 20
1.0
 30
0.0
  9
$PUCSORTHOREF
  2

  9
$PUCSORTHOVIEW
 70
     0
  9
$PUCSORGTOP
 10
0.0
 20
0.0
 30
0.0
  9
$PUCSORGBOTTOM
 10
0.0
 20
0.0
 30
0.0
  9
$PUCSORGLEFT
 10
0.0
 20
0.0
 30
0.0
  9
$PUCSORGRIGHT
 10
0.0
 20
0.0
 30
0.0
  9
$PUCSORGFRONT
 10
0.0
 20
0.0
 30
0.0
  9
$PUCSORGBACK
 10
0.0
 20
0.0
 30
0.0
  9
$USERI1
 70
     0
  9
$USERI2
 70
     0
  9
$USERI3
 70
     0
  9
$USERI4
 70
     0
  9
$USERI5
 70
     0
  9
$USERR1
 40
0.0
  9
$USERR2
 40
0.0
  9
$USERR3
 40
0.0
  9
$USERR4
 40
0.0
  9
$USERR5
 40
0.0
  9
$WORLDVIEW
 70
     1
  9
$SHADEDGE
 70
     3
  9
$SHADEDIF
 70
    70
  9
$TILEMODE
 70
     1
  9
$MAXACTVP
 70
    16
  9
$PINSBASE
 10
0.0
 20
0.0
 30
0.0
  9
$PLIMCHECK
 70
     0
  9
$PEXTMIN
 10
1.000000000000000E+20
 20
1.000000000000000E+20
 30
1.000000000000000E+20
  9
$PEXTMAX
 10
-1.000000000000000E+20
 20
-1.000000000000000E+20
 30
-1.000000000000000E+20
  9
$PLIMMIN
 10
0.0
 20
0.0
  9
$PLIMMAX
 10
12.0
 20
9.0
  9
$UNITMODE
 70
     0
  9
$VISRETAIN
 70
     0
  9
$PLINEGEN
 70
     1
  9
$PSLTSCALE
 70
     0
  9
$TREEDEPTH
 70
  3020
  9
$CMLSTYLE
  2
Standard
  9
$CMLJUST
 70
     0
  9
$CMLSCALE
 40
1.0
  9
$PROXYGRAPHICS
 70
     0
  9
$MEASUREMENT
 70
     1
  9
$CELWEIGHT
370
     0
  9
$ENDCAPS
280
     0
  9
$JOINSTYLE
280
     0
  9
$LWDISPLAY
290
     0
  9
$INSUNITS
 70
     0
  9
$HYPERLINKBASE
  1

  9
$STYLESHEET
  1

  9
$XEDIT
290
     1
  9
$CEPSNTYPE
380
     0
  9
$PSTYLEMODE
290
     1
  9
$FINGERPRINTGUID
  2

  9
$VERSIONGUID
  2
{FAC9221E-1C48-4A7B-A26A-874DD9388C01}
  9
$EXTNAMES
290
     1
  9
$PSVPSCALE
 40
0.0
  9
$OLESTARTUP
290
     0
  0
ENDSEC
  0
SECTION
  2
CLASSES
  0
CLASS
  1
IMAGE
  2
AcDbRasterImage
  3
ISM
 90
    34943
280
     0
281
     1
  0
CLASS
  1
DICTIONARYVAR
  2
AcDbDictionaryVar
  3
ObjectDBX Classes
 90
        0
280
     0
281
     0
  0
CLASS
  1
RASTERVARIABLES
  2
AcDbRasterVariables
  3
ISM
 90
    32768
280
     0
281
     0
  0
CLASS
  1
IMAGEDEF
  2
AcDbRasterImageDef
  3
ISM
 90
    32768
280
     0
281
     0
  0
CLASS
  1
IMAGEDEF_REACTOR
  2
AcDbRasterImageDefReactor
  3
ISM
 90
    32769
280
     0
281
     0
  0
CLASS
  1
IDBUFFER
  2
AcDbIdBuffer
  3
ObjectDBX Classes
 90
    32768
280
     0
281
     0
  0
CLASS
  1
SPATIAL_FILTER
  2
AcDbSpatialFilter
  3
ObjectDBX Classes
 90
    32768
280
     0
281
     0
  0
CLASS
  1
SORTENTSTABLE
  2
AcDbSortentsTable
  3
ObjectDBX Classes
 90
        0
280
     0
281
     0
  0
CLASS
  1
LAYER_INDEX
  2
AcDbLayerIndex
  3
ObjectDBX Classes
 90
    32768
280
     0
281
     0
  0
CLASS
  1
SPATIAL_INDEX
  2
AcDbSpatialIndex
  3
ObjectDBX Classes
 90
    32768
280
     0
281
     0
  0
CLASS
  1
OBJECT_PTR
  2
CAseDLPNTableRecord
  3
ASE-LPNTableRecord
 90
    32769
280
     0
281
     0
  0
CLASS
  1
LAYOUT
  2
AcDbLayout
  3
ObjectDBX Classes
 90
        0
280
     0
281
     0
  0
CLASS
  1
PLOTSETTINGS
  2
AcDbPlotSettings
  3
ObjectDBX Classes
 90
    32768
280
     0
281
     0
  0
CLASS
  1
ACDBDICTIONARYWDFLT
  2
AcDbDictionaryWithDefault
  3
ObjectDBX Classes
 90
        0
280
     0
281
     0
  0
CLASS
  1
ACDBPLACEHOLDER
  2
AcDbPlaceHolder
  3
ObjectDBX Classes
 90
        0
280
     0
281
     0
  0
CLASS
  1
VBA_PROJECT
  2
AcDbVbaProject
  3
acad
 90
    32768
280
     0
281
     0
  0
CLASS
  1
WIPEOUT
  2
AcDbWipeout
  3
"WipeOut|Product Desc: Object Enabler for WipeOut entity                        |Company: Autodesk, Inc.                        |WEB Address: www.autodesk.com"
 90
    34943
280
     0
281
     1
  0
CLASS
  1
WIPEOUTVARIABLES
  2
AcDbWipeoutVariables
  3
"WipeOut|Product Desc:     WipeOut Dbx Application|Company:          Autodesk, Inc.|WEB Address:      www.autodesk.com"
 90
        0
280
     0
281
     0
  0
CLASS
  1
RTEXT
  2
RText
  3
RText|AutoCAD Express Tool|expresstools@autodesk.com
 90
    35839
280
     0
281
     1
  0
CLASS
  1
ARCALIGNEDTEXT
  2
AcDbArcAlignedText
  3
ATEXT|AutoCAD Express Tool|expresstools@autodesk.com
 90
    32768
280
     0
281
     1
  0
CLASS
  1
MATERIAL
  2
AcDbMaterial
  3
ObjectDBX Classes
 90
     1153
280
     0
281
     0
  0
CLASS
  1
VISUALSTYLE
  2
AcDbVisualStyle
  3
ObjectDBX Classes
 90
     4095
280
     0
281
     0
  0
CLASS
  1
TABLESTYLE
  2
AcDbTableStyle
  3
ObjectDBX Classes
 90
     4095
280
     0
281
     0
  0
CLASS
  1
SCALE
  2
AcDbScale
  3
ObjectDBX Classes
 90
     1153
280
     0
281
     0
  0
CLASS
  1
MLEADERSTYLE
  2
AcDbMLeaderStyle
  3
ACDB_MLEADERSTYLE_CLASS
 90
     4095
280
     0
281
     0
  0
CLASS
  1
CELLSTYLEMAP
  2
AcDbCellStyleMap
  3
ObjectDBX Classes
 90
     1152
280
     0
281
     0
  0
ENDSEC
  0
SECTION
  2
TABLES
  0
TABLE
  2
VPORT
  5
7
330
0
100
AcDbSymbolTable
 70
     1
  0
VPORT
  5
15
330
7
100
AcDbSymbolTableRecord
100
AcDbViewportTableRecord
  2
*ACTIVE
 70
     0
 10
0.0
 20
0.0
 11
1.0
 21
1.0
 12
28.64622573706294
 22
12.25645835355999
 13
0.0
 23
0.0
 14
1.0
 24
1.0
 15
0.0
 25
0.0
 16
0.0
 26
0.0
 36
1.0
 17
0.0
 27
0.0
 37
0.0
 40
343.8095811444619
 41
1.611330698287219
 42
50.0
 43
0.0
 44
0.0
 50
0.0
 51
0.0
 71
     0
 72
   100
 73
     1
 74
     1
 75
     0
 76
     0
 77
     0
 78
     0
281
     0
 65
     0
110
0.0
120
0.0
130
0.0
111
1.0
121
0.0
131
0.0
112
0.0
122
1.0
132
0.0
 79
     0
146
0.0
  0
ENDTAB
  0
TABLE
  2
LTYPE
  5
4
330
0
100
AcDbSymbolTable
 70
     2
  0
LTYPE
  5
11
330
4
100
AcDbSymbolTableRecord
100
AcDbLinetypeTableRecord
  2
ByBlock
 70
     0
  3

 72
    65
 73
     0
 40
0.0
  0
LTYPE
  5
12
330
4
100
AcDbSymbolTableRecord
100
AcDbLinetypeTableRecord
  2
ByLayer
 70
     0
  3

 72
    65
 73
     0
 40
0.0
  0
LTYPE
  5
13
330
4
100
AcDbSymbolTableRecord
100
AcDbLinetypeTableRecord
  2
Continuous
 70
     0
  3
Solid line
 72
    65
 73
     0
 40
0.0
  0
LTYPE
  5
2A2
330
4
100
AcDbSymbolTableRecord
100
AcDbLinetypeTableRecord
  2
CENTER
 70
     0
  3
____ _ ____ _ ____ _ ____ _ ____ _ ____ _ ____
 72
    65
 73
     4
 40
2.0
 49
1.25
 74
     0
 49
-0.25
 74
     0
 49
0.25
 74
     0
 49
-0.25
 74
     0
  0
ENDTAB
  0
TABLE
  2
LAYER
  5
2
330
0
100
AcDbSymbolTable
 70
     1
  0
LAYER
  5
14
102
{ACAD_XDICTIONARY
360
72C9
102
}
330
2
100
AcDbSymbolTableRecord
100
AcDbLayerTableRecord
  2
0
 70
     0
 62
     7
  6
Continuous
370
    -3
390
1D
  0
ENDTAB
  0
TABLE
  2
STYLE
  5
3
330
0
100
AcDbSymbolTable
 70
     1
  0
STYLE
  5
17
330
3
100
AcDbSymbolTableRecord
100
AcDbTextStyleTableRecord
  2
Standard
 70
     0
 40
0.0
 41
1.0
 50
0.0
 71
     0
 42
0.0
  3
IsonormD
  4

1001
ACAD
1000
IsonormD
1071
        0
  0
ENDTAB
  0
TABLE
  2
VIEW
  5
5
330
0
100
AcDbSymbolTable
 70
     0
  0
ENDTAB
  0
TABLE
  2
UCS
  5
6
330
0
100
AcDbSymbolTable
 70
     0
  0
ENDTAB
  0
TABLE
  2
APPID
  5
8
330
0
100
AcDbSymbolTable
 70
     4
  0
APPID
  5
16
330
8
100
AcDbSymbolTableRecord
100
AcDbRegAppTableRecord
  2
ACAD
 70
     0
  0
APPID
  5
26
330
8
100
AcDbSymbolTableRecord
100
AcDbRegAppTableRecord
  2
TopSolid_Draft
 70
     0
  0
APPID
  5
39AF
330
8
100
AcDbSymbolTableRecord
100
AcDbRegAppTableRecord
  2
ACAD_MLEADERVER
 70
     0
  0
APPID
  5
72C7
330
8
100
AcDbSymbolTableRecord
100
AcDbRegAppTableRecord
  2
DCO15
 70
     0
  0
ENDTAB
  0
TABLE
  2
DIMSTYLE
  5
9
330
0
100
AcDbSymbolTable
 70
     1
100
AcDbDimStyleTable
 71
     0
  0
DIMSTYLE
105
18
330
9
100
AcDbSymbolTableRecord
100
AcDbDimStyleTableRecord
  2
Standard
 70
     0
 41
1.25
 42
0.0
 44
0.75
 73
     0
 74
     0
 77
     1
140
2.5
146
0.8
147
1.25
176
     7
177
     7
178
     7
271
     2
340
17
  0
ENDTAB
  0
TABLE
  2
BLOCK_RECORD
  5
1
330
0
100
AcDbSymbolTable
 70
     1
  0
BLOCK_RECORD
  5
A
102
{ACAD_XDICTIONARY
360
39B7
102
}
330
1
100
AcDbSymbolTableRecord
100
AcDbBlockTableRecord
  2
*MODEL_SPACE
340
20
  0
BLOCK_RECORD
  5
B
330
1
100
AcDbSymbolTableRecord
100
AcDbBlockTableRecord
  2
*PAPER_SPACE
340
21
  0
ENDTAB
  0
ENDSEC
  0
SECTION
  2
BLOCKS
  0
BLOCK
  5
D
330
A
100
AcDbEntity
  8
0
100
AcDbBlockBegin
  2
*MODEL_SPACE
 70
     0
 10
0.0
 20
0.0
 30
0.0
  3
*MODEL_SPACE
  1

  0
ENDBLK
  5
E
330
A
100
AcDbEntity
  8
0
100
AcDbBlockEnd
  0
BLOCK
  5
F
330
B
100
AcDbEntity
 67
     1
  8
0
100
AcDbBlockBegin
  2
*PAPER_SPACE
 70
     0
 10
0.0
 20
0.0
 30
0.0
  3
*PAPER_SPACE
  1

  0
ENDBLK
  5
10
330
B
100
AcDbEntity
 67
     1
  8
0
100
AcDbBlockEnd
  0
ENDSEC
  0
SECTION
  2
ENTITIES
  0
LINE
  5
553
330
A
100
AcDbEntity
  8
0
  6
CENTER
 62
     1
100
AcDbLine
 10
-98.12704699999983
 20
35.44999999999993
 30
0.0
 11
-98.12704699999983
 21
42.54999999999995
 31
0.0
  0
LINE
  5
554
330
A
100
AcDbEntity
  8
0
  6
CENTER
 62
     1
100
AcDbLine
 10
-88.67704699999984
 20
26.00000000000023
 30
0.0
 11
-81.57704699999982
 21
26.00000000000023
 31
0.0
  0
LINE
  5
555
330
A
100
AcDbEntity
  8
0
  6
CENTER
 62
     1
100
AcDbLine
 10
-88.67704699999984
 20
52.00000000000023
 30
0.0
 11
-81.57704699999982
 21
52.00000000000023
 31
0.0
  0
LINE
  5
556
330
A
100
AcDbEntity
  8
0
  6
CENTER
 62
     1
100
AcDbLine
 10
-80.52704699999981
 20
58.00000000000022
 30
0.0
 11
-73.72704699999997
 21
58.00000000000022
 31
0.0
  0
LINE
  5
557
330
A
100
AcDbEntity
  8
0
  6
CENTER
 62
     1
100
AcDbLine
 10
-77.12704699999983
 20
54.60000000000025
 30
0.0
 11
-77.12704699999983
 21
61.4000000000002
 31
0.0
  0
LINE
  5
558
330
A
100
AcDbEntity
  8
0
  6
CENTER
 62
     1
100
AcDbLine
 10
-72.12704699999983
 20
35.44999999999993
 30
0.0
 11
-72.12704699999983
 21
42.54999999999995
 31
0.0
  0
LINE
  5
559
330
A
100
AcDbEntity
  8
0
  6
CENTER
 62
     1
100
AcDbLine
 10
-63.62704699999984
 20
34.35000000000025
 30
0.0
 11
-63.62704699999984
 21
43.6500000000002
 31
0.0
  0
LINE
  5
55A
330
A
100
AcDbEntity
  8
0
  6
CENTER
 62
     1
100
AcDbLine
 10
-61.77704699999981
 20
-0.9999999999997726
 30
0.0
 11
-52.47704699999997
 21
-0.9999999999997726
 31
0.0
  0
LINE
  5
55B
330
A
100
AcDbEntity
  8
0
  6
CENTER
 62
     1
100
AcDbLine
 10
-57.12704699999983
 20
-5.649999999999749
 30
0.0
 11
-57.12704699999983
 21
3.650000000000204
 31
0.0
  0
LINE
  5
55C
330
A
100
AcDbEntity
  8
0
  6
CENTER
 62
     1
100
AcDbLine
 10
-61.77704699999981
 20
79.00000000000023
 30
0.0
 11
-52.47704699999997
 21
79.00000000000023
 31
0.0
  0
LINE
  5
55D
330
A
100
AcDbEntity
  8
0
  6
CENTER
 62
     1
100
AcDbLine
 10
-57.12704699999983
 20
74.35000000000025
 30
0.0
 11
-57.12704699999983
 21
83.65000000000021
 31
0.0
  0
LINE
  5
55E
330
A
100
AcDbEntity
  8
0
  6
CENTER
 62
     1
100
AcDbLine
 10
-102.6270469999998
 20
39.00000000000023
 30
0.0
 11
-58.97704699999986
 21
39.00000000000023
 31
0.0
  0
LINE
  5
55F
330
A
100
AcDbEntity
  8
0
  6
CENTER
 62
     1
100
AcDbLine
 10
-85.12704699999984
 20
21.50000000000023
 30
0.0
 11
-85.12704699999984
 21
56.50000000000023
 31
0.0
  0
LINE
  5
560
330
A
100
AcDbEntity
  8
0
  6
CENTER
 62
     1
100
AcDbLine
 10
16.50000000000011
 20
71.50000000000023
 30
0.0
 11
16.50000000000011
 21
66.95404499999995
 31
0.0
  0
LINE
  5
561
330
A
100
AcDbEntity
  8
0
  6
CENTER
 62
     1
100
AcDbLine
 10
16.50000000000011
 20
6.500000000000227
 30
0.0
 11
16.50000000000011
 21
11.04595499999993
 31
0.0
  0
LINE
  5
562
330
A
100
AcDbEntity
  8
0
  6
CENTER
 62
     1
100
AcDbLine
 10
2.782576000000233
 20
14.4000000000002
 30
0.0
 11
-2.0
 21
14.4000000000002
 31
0.0
  0
LINE
  5
563
330
A
100
AcDbEntity
  8
0
  6
CENTER
 62
     1
100
AcDbLine
 10
2.782576000000233
 20
63.69999999999993
 30
0.0
 11
-2.0
 21
63.69999999999993
 31
0.0
  0
LINE
  5
564
330
A
100
AcDbEntity
  8
0
  6
CENTER
 62
     1
100
AcDbLine
 10
2.782576000000233
 20
63.60000000000025
 30
0.0
 11
-2.0
 21
63.60000000000025
 31
0.0
  0
LINE
  5
565
330
A
100
AcDbEntity
  8
0
  6
CENTER
 62
     1
100
AcDbLine
 10
2.782576000000233
 20
14.5
 30
0.0
 11
-2.0
 21
14.5
 31
0.0
  0
LINE
  5
566
330
A
100
AcDbEntity
  8
0
  6
CENTER
 62
     1
100
AcDbLine
 10
93.67295300000012
 20
-0.9999999999997726
 30
0.0
 11
108.0729530000002
 21
-0.9999999999997726
 31
0.0
  0
LINE
  5
567
330
A
100
AcDbEntity
  8
0
  6
CENTER
 62
     1
100
AcDbLine
 10
100.8729530000001
 20
-8.200000000000045
 30
0.0
 11
100.8729530000001
 21
6.199999999999931
 31
0.0
  0
LINE
  5
568
330
A
100
AcDbEntity
  8
0
  6
CENTER
 62
     1
100
AcDbLine
 10
93.67295300000012
 20
79.00000000000023
 30
0.0
 11
108.0729530000002
 21
79.00000000000023
 31
0.0
  0
LINE
  5
569
330
A
100
AcDbEntity
  8
0
  6
CENTER
 62
     1
100
AcDbLine
 10
100.8729530000001
 20
71.80000000000018
 30
0.0
 11
100.8729530000001
 21
86.19999999999993
 31
0.0
  0
LINE
  5
56A
330
A
100
AcDbEntity
  8
0
  6
CENTER
 62
     1
100
AcDbLine
 10
100.172953
 20
39.00000000000023
 30
0.0
 11
114.5729530000002
 21
39.00000000000023
 31
0.0
  0
LINE
  5
56B
330
A
100
AcDbEntity
  8
0
  6
CENTER
 62
     1
100
AcDbLine
 10
107.3729530000001
 20
31.80000000000007
 30
0.0
 11
107.3729530000001
 21
46.20000000000016
 31
0.0
  0
ELLIPSE
  5
6B40
330
A
100
AcDbEntity
  8
0
  6
Continuous
 62
     7
100
AcDbEllipse
 10
107.6675430000002
 20
-107.8159299999997
 30
0.0
 11
-0.3199999997975933
 21
-1.567673435422523
 31
0.0
210
0.0
220
0.0
230
1.0
 40
0.4082480000000003
 41
0.0
 42
0.3495103843472759
  0
ELLIPSE
  5
6B41
330
A
100
AcDbEntity
  8
0
  6
Continuous
 62
     7
100
AcDbEllipse
 10
107.6675430000002
 20
-107.8159299999997
 30
0.0
 11
-0.3199999997975933
 21
-1.567673435422578
 31
-0.0000000000000002
210
-0.0000000000000001
220
-0.0000000000000001
230
0.9999999999999998
 40
0.4082480000000002
 41
0.3495103843472689
 42
3.141592653589786
  0
ELLIPSE
  5
6B42
330
A
100
AcDbEntity
  8
0
  6
Continuous
 62
     7
100
AcDbEllipse
 10
107.6675430000002
 20
-107.8159299999997
 30
0.0
 11
-0.3199999997975933
 21
-1.567673435422578
 31
-0.0000000000000002
210
-0.0000000000000001
220
-0.0000000000000001
230
0.9999999999999998
 40
0.4082480000000002
 41
3.141592653589786
 42
6.283185307179577
  0
ELLIPSE
  5
6B43
330
A
100
AcDbEntity
  8
0
  6
Continuous
 62
     7
100
AcDbEllipse
 10
107.1075770000003
 20
-107.7016269999997
 30
0.0
 11
-0.3199999997975933
 21
-1.567673435422578
 31
-0.0000000000000002
210
-0.0000000000000001
220
-0.0000000000000001
230
0.9999999999999998
 40
0.4082480000000002
 41
5.061899364731938
 42
6.283185307179584
  0
ELLIPSE
  5
6B44
330
A
100
AcDbEntity
  8
0
  6
Continuous
 62
     7
100
AcDbEllipse
 10
107.1075770000003
 20
-107.7016269999997
 30
0.0
 11
-0.3199999997975933
 21
-1.567673435422578
 31
-0.0000000000000001
210
0.0
220
-0.0000000000000001
230
0.9999999999999998
 40
0.4082480000000002
 41
3.141592653589786
 42
5.061899364731938
  0
ELLIPSE
  5
6B45
330
A
100
AcDbEntity
  8
0
  6
Continuous
 62
     7
100
AcDbEllipse
 10
107.6675430000002
 20
-71.95835999999975
 30
0.0
 11
-0.3199999997975933
 21
-1.567673435422523
 31
-0.0000000000000001
210
-0.0000000000000001
220
0.0
230
1.0
 40
0.4082480000000003
 41
6.283185307179517
 42
6.632695691526802
  0
ELLIPSE
  5
6B46
330
A
100
AcDbEntity
  8
0
  6
Continuous
 62
     7
100
AcDbEllipse
 10
107.6675430000002
 20
-71.95835999999975
 30
0.0
 11
-0.3199999997975933
 21
-1.567673435422523
 31
0.0
210
0.0
220
0.0
230
1.0
 40
0.4082480000000003
 41
0.3495103843472114
 42
3.141592653589941
  0
ELLIPSE
  5
6B47
330
A
100
AcDbEntity
  8
0
  6
Continuous
 62
     7
100
AcDbEllipse
 10
107.6675430000002
 20
-71.95835999999975
 30
0.0
 11
-0.3199999997975933
 21
-1.567673435422523
 31
0.0
210
0.0
220
0.0
230
1.0
 40
0.4082480000000003
 41
3.141592653589941
 42
6.283185307179517
  0
ELLIPSE
  5
6B48
330
A
100
AcDbEntity
  8
0
  6
Continuous
 62
     7
100
AcDbEllipse
 10
107.1075770000003
 20
-71.84405699999996
 30
0.0
 11
-0.3199999997975933
 21
-1.567673435422578
 31
0.0
210
0.0
220
0.0
230
0.9999999999999998
 40
0.4082480000000002
 41
5.061899364731917
 42
6.283185307179517
  0
ELLIPSE
  5
6B49
330
A
100
AcDbEntity
  8
0
  6
Continuous
 62
     7
100
AcDbEllipse
 10
107.1075770000003
 20
-71.84405699999996
 30
0.0
 11
-0.3199999997975933
 21
-1.567673435422578
 31
-0.0000000000000001
210
-0.0000000000000001
220
0.0
230
0.9999999999999998
 40
0.4082480000000002
 41
3.141592653589936
 42
5.061899364731873
  0
LINE
  5
6B4A
330
A
100
AcDbEntity
  8
0
  6
Continuous
 62
     7
100
AcDbLine
 10
102.0987850000002
 20
-43.83717699999976
 30
0.0
 11
144.3157480000002
 21
-52.45467899999994
 31
0.0
  0
ELLIPSE
  5
6B4B
330
A
100
AcDbEntity
  8
0
  6
Continuous
 62
     7
100
AcDbEllipse
 10
144.3157480000002
 20
-56.4713109999999
 30
0.0
 11
-2.782804340963451
 21
3.408225344650016
 31
0.0
210
0.0
220
0.0
230
1.0
 40
0.816497
 41
4.348934460339351
 42
5.497787143842537
  0
LINE
  5
6B4C
330
A
100
AcDbEntity
  8
0
  6
Continuous
 62
     9
100
AcDbLine
 10
144.852405
 20
-52.01649999999995
 30
0.0
 11
144.3157480000002
 21
-52.45467899999994
 31
0.0
  0
ELLIPSE
  5
6B4D
330
A
100
AcDbEntity
  8
0
  6
Continuous
 62
     7
100
AcDbEllipse
 10
144.852405
 20
-56.03313299999991
 30
0.0
 11
-2.782804340963451
 21
3.408225344650129
 31
0.0000000000000002
210
0.0
220
-0.0000000000000001
230
1.0
 40
0.816497
 41
4.341510895771063
 42
5.49778714384253
  0
LINE
  5
6B4E
330
A
100
AcDbEntity
  8
0
  6
Continuous
 62
     9
100
AcDbLine
 10
102.635441
 20
-43.39899899999977
 30
0.0
 11
102.0987850000002
 21
-43.83717699999976
 31
0.0
  0
LINE
  5
6B4F
330
A
100
AcDbEntity
  8
0
  6
Continuous
 62
     7
100
AcDbLine
 10
102.635441
 20
-43.39899899999977
 30
0.0
 11
144.852405
 21
-52.01649999999995
 31
0.0
  0
ELLIPSE
  5
6B50
330
A
100
AcDbEntity
  8
0
  6
Continuous
 62
     7
100
AcDbEllipse
 10
102.635441
 20
-47.41563099999973
 30
0.0
 11
-2.782804340963451
 21
3.408225344650129
 31
-0.0000000000000002
210
0.0
220
0.0
230
1.0
 40
0.816497
 41
5.49778714384253
 42
6.283185307179584
  0
ELLIPSE
  5
6B51
330
A
100
AcDbEntity
  8
0
  6
Continuous
 62
     7
100
AcDbEllipse
 10
102.0987850000002
 20
-47.85380899999973
 30
0.0
 11
-2.782804340963451
 21
3.408225344650016
 31
-0.0000000000000002
210
0.0
220
0.0
230
1.0
 40
0.816497
 41
5.497787143842549
 42
6.283185307179584
  0
ELLIPSE
  5
6B52
330
A
100
AcDbEntity
  8
0
  6
Continuous
 62
     7
100
AcDbEllipse
 10
113.368567
 20
-56.17919199999994
 30
0.0
 11
4.806662043482345
 21
-5.886934686213705
 31
0.0
210
-0.0000000000000001
220
0.0
230
1.0
 40
0.816497
 41
2.030311533151396
 42
2.682077447354034
  0
ELLIPSE
  5
6B53
330
A
100
AcDbEntity
  8
0
  6
Continuous
 62
     7
100
AcDbEllipse
 10
159.5210100000001
 20
-88.27573399999995
 30
0.0
 11
0.423999999865976
 21
2.077167301907488
 31
0.0
210
-0.0000000000000001
220
0.0
230
1.0
 40
0.4082480000000002
 41
5.176036589359159
 42
6.283185307179527
  0
ELLIPSE
  5
6B54
330
A
100
AcDbEntity
  8
0
  6
Continuous
 62
     7
100
AcDbEllipse
 10
161.8465210000001
 20
-115.5888319999998
 30
0.0
 11
0.423999999865976
 21
2.077167301907488
 31
0.0
210
-0.0000000000000001
220
0.0
230
1.0
 40
0.4082480000000002
 41
5.176036589359108
 42
6.283185307179527
  0
ELLIPSE
  5
6B55
330
A
100
AcDbEntity
  8
0
  6
Continuous
 62
     7
100
AcDbEllipse
 10
161.8465210000001
 20
-57.16509299999973
 30
0.0
 11
0.4239999998659762
 21
2.077167301907543
 31
0.0
210
-0.0000000000000001
220
0.0
230
1.0
 40
0.4082480000000002
 41
5.176036589359129
 42
6.283185307179637
  0
LINE
  5
6B56
330
A
100
AcDbEntity
  8
0
  6
Continuous
 62
     7
100
AcDbLine
 10
145.9257169999999
 20
-59.94021999999995
 30
0.0
 11
145.9257169999999
 21
-138.8122679999999
 31
0.0
  0
LINE
  5
6B57
330
A
100
AcDbEntity
  8
0
  6
Continuous
 62
     7
100
AcDbLine
 10
164.5298030000001
 20
-44.75004799999999
 30
0.0
 11
145.9257169999999
 21
-59.94021999999995
 31
0.0
  0
LINE
  5
6B58
330
A
100
AcDbEntity
  8
0
  6
Continuous
 62
     7
100
AcDbLine
 10
164.5298030000001
 20
-44.75004799999999
 30
0.0
 11
164.5298030000001
 21
-123.6220959999998
 31
0.0
  0
LINE
  5
6B59
330
A
100
AcDbEntity
  8
0
  6
Continuous
 62
     7
100
AcDbLine
 10
164.5298030000001
 20
-123.6220959999998
 30
0.0
 11
145.9257169999999
 21
-138.8122679999999
 31
0.0
  0
ELLIPSE
  5
6B5A
330
A
100
AcDbEntity
  8
0
  6
Continuous
 62
     7
100
AcDbEllipse
 10
154.6911039999999
 20
-78.34369799999996
 30
0.0
 11
0.2239999999291698
 21
1.097371404781332
 31
0.0000000000000001
210
0.0
220
-0.0000000000000001
230
1.0
 40
0.4082480000000003
 41
5.176036589359096
 42
6.283185307179576
  0
ELLIPSE
  5
6B5B
330
A
100
AcDbEntity
  8
0
  6
Continuous
 62
     7
100
AcDbEllipse
 10
152.544478
 20
-80.82670699999983
 30
0.0
 11
0.2399999999240787
 21
1.175755076551432
 31
0.0
210
0.0
220
0.0
230
1.0
 40
0.4082480000000002
 41
5.1760365893592
 42
6.283185307179667
  0
LINE
  5
6B5C
330
A
100
AcDbEntity
  8
0
  6
Continuous
 62
     7
100
AcDbLine
 10
152.544478
 20
-79.73126199999995
 30
0.0
 11
151.1133950000002
 21
-80.89973699999978
 31
0.0
  0
ELLIPSE
  5
6B5D
330
A
100
AcDbEntity
  8
0
  6
Continuous
 62
     7
100
AcDbEllipse
 10
151.1133950000002
 20
-81.99518199999994
 30
0.0
 11
0.2399999999240787
 21
1.175755076551376
 31
-0.0000000000000001
210
0.0
220
0.0000000000000001
230
1.0
 40
0.4082480000000002
 41
0.4636476089743739
 42
2.034443935769346
  0
ELLIPSE
  5
6B5E
330
A
100
AcDbEntity
  8
0
  6
Continuous
 62
     7
100
AcDbEllipse
 10
151.1133950000002
 20
-81.99518199999994
 30
0.0
 11
0.2399999999240787
 21
1.175755076551376
 31
0.0000000000000001
210
-0.0000000000000001
220
-0.0000000000000001
230
1.0
 40
0.4082480000000002
 41
2.034443935769254
 42
3.141592653589701
  0
LINE
  5
6B5F
330
A
100
AcDbEntity
  8
0
  6
Continuous
 62
     7
100
AcDbLine
 10
151.1133950000002
 20
-83.09062699999975
 30
0.0
 11
152.544478
 21
-81.92215199999976
 31
0.0
  0
ELLIPSE
  5
6B60
330
A
100
AcDbEntity
  8
0
  6
Continuous
 62
     7
100
AcDbEllipse
 10
152.544478
 20
-80.82670699999983
 30
0.0
 11
0.2399999999240787
 21
1.175755076551432
 31
-0.0000000000000001
210
0.0
220
0.0000000000000001
230
1.0
 40
0.4082480000000002
 41
3.605240262564158
 42
5.176036589359131
  0
ELLIPSE
  5
6B61
330
A
100
AcDbEntity
  8
0
  6
Continuous
 62
     7
100
AcDbEllipse
 10
151.8289369999999
 20
-94.55628599999995
 30
0.0
 11
-2.479999999215887
 21
-12.14946912436465
 31
-0.0000000000000009
210
0.0
220
-0.0000000000000001
230
1.0
 40
0.4082480000000002
 41
5.819537698144735
 42
8.317629242948923
  0
LINE
  5
6B62
330
A
100
AcDbEntity
  8
0
  6
Continuous
 62
     7
100
AcDbLine
 10
145.9257169999999
 20
-138.8122679999999
 30
0.0
 11
142.5626709999999
 21
-138.1257889999997
 31
0.0
  0
LINE
  5
6B63
330
A
100
AcDbEntity
  8
0
  6
Continuous
 62
     9
100
AcDbLine
 10
142.5626709999999
 20
-59.25374099999976
 30
0.0
 11
142.5626709999999
 21
-138.1257889999997
 31
0.0
  0
LINE
  5
6B64
330
A
100
AcDbEntity
  8
0
  6
Continuous
 62
     7
100
AcDbLine
 10
142.5626709999999
 20
-59.25374099999976
 30
0.0
 11
145.9257169999999
 21
-59.94021999999995
 31
0.0
  0
ELLIPSE
  5
6B65
330
A
100
AcDbEntity
  8
0
  6
Continuous
 62
     7
100
AcDbEllipse
 10
160.9878710000001
 20
-44.20962799999995
 30
0.0
 11
-0.3999999999999559
 21
-0.000000000025091
 31
0.0
210
0.0
220
0.0
230
1.0
 40
0.4082480000000002
 41
4.248741371362117
 42
5.819537698156641
  0
LINE
  5
6B66
330
A
100
AcDbEntity
  8
0
  6
Continuous
 62
     7
100
AcDbLine
 10
161.1667570000002
 20
-44.06356899999991
 30
0.0
 11
164.5298030000001
 21
-44.75004799999999
 31
0.0
  0
ELLIPSE
  5
6B67
330
A
100
AcDbEntity
  8
0
  6
Continuous
 62
     7
100
AcDbEllipse
 10
142.7415560000001
 20
-59.10768199999996
 30
0.0
 11
-0.400000000000067
 21
-0.000000000025091
 31
0.0
210
0.0
220
0.0
230
1.0
 40
0.4082480000000001
 41
5.819537698156763
 42
6.283185307179584
  0
LINE
  5
6B68
330
A
100
AcDbEntity
  8
0
  6
Continuous
 62
     7
100
AcDbLine
 10
142.3837860000002
 20
-59.0346519999997
 30
0.0
 11
142.920442
 21
-58.59647399999994
 31
0.0
  0
ELLIPSE
  5
6B69
330
A
100
AcDbEntity
  8
0
  6
Continuous
 62
     7
100
AcDbEllipse
 10
98.37539400000004
 20
-44.2091029999998
 30
0.0
 11
56.79999999999996
 21
0.0000000035639269
 31
0.0000000000000045
210
-0.0000000000000001
220
0.0
230
1.0
 40
0.4082480000000003
 41
5.613865382259283
 42
6.025210014054351
  0
LINE
  5
6B6A
330
A
100
AcDbEntity
  8
0
  6
Continuous
 62
     7
100
AcDbLine
 10
153.2957970000002
 20
-50.12503199999992
 30
0.0
 11
160.6301
 21
-44.13659899999993
 31
0.0
  0
ELLIPSE
  5
6B6B
330
A
100
AcDbEntity
  8
0
  6
Continuous
 62
     7
100
AcDbEllipse
 10
142.7415560000001
 20
-59.10768199999996
 30
0.0
 11
-0.3999999999999559
 21
-0.000000000025091
 31
0.0
210
0.0
220
0.0
230
1.0
 40
0.4082480000000002
 41
0.0
 42
1.107148717772324
  0
ELLIPSE
  5
6B6C
330
A
100
AcDbEntity
  8
0
  6
Continuous
 62
     7
100
AcDbEllipse
 10
142.7415560000001
 20
-137.9797299999998
 30
0.0
 11
0.400000000000067
 21
0.000000000025091
 31
0.0
210
0.0
220
0.0
230
1.0
 40
0.4082480000000001
 41
3.141592653589654
 42
4.248741371361607
  0
ELLIPSE
  5
6B6D
330
A
100
AcDbEntity
  8
0
  6
Continuous
 62
     7
100
AcDbEllipse
 10
141.3104730000002
 20
-76.34268499999961
 30
0.0
 11
1.20000000000009
 21
0.0000000000752731
 31
0.0000000000000001
210
-0.0000000000000001
220
0.0
230
1.0
 40
0.4082480000000002
 41
0.5370214490499352
 42
1.107148717772133
  0
LINE
  5
6B6E
330
A
100
AcDbEntity
  8
0
  6
Continuous
 62
     7
100
AcDbLine
 10
141.8471289999999
 20
-75.90450699999997
 30
0.0
 11
118.0195890000003
 21
-71.04073099999976
 31
0.0
  0
ELLIPSE
  5
6B6F
330
A
100
AcDbEntity
  8
0
  6
Continuous
 62
     7
100
AcDbEllipse
 10
123.2072669999999
 20
-66.80500999999975
 30
0.0
 11
11.59999999999994
 21
0.0000000007278622
 31
0.0000000000000005
210
0.0
220
0.0
230
1.0
 40
0.4082480000000003
 41
3.839043919389147
 42
4.248741371361933
  0
ELLIPSE
  5
6B70
330
A
100
AcDbEntity
  8
0
  6
Continuous
 62
     7
100
AcDbEllipse
 10
123.2072669999999
 20
-66.80500999999975
 30
0.0
 11
10.80000000000002
 21
0.0000000006776801
 31
0.0000000000000005
210
0.0
220
0.0
230
1.0
 40
0.4082480000000002
 41
4.076395557292586
 42
4.248741371361936
  0
ELLIPSE
  5
6B71
330
A
100
AcDbEntity
  8
0
  6
Continuous
 62
     7
100
AcDbEllipse
 10
141.3104730000002
 20
-120.1604899999999
 30
0.0
 11
-1.199999999999978
 21
-0.0000000000752731
 31
-0.0000000000000001
210
-0.0000000000000001
220
-0.0000000000000001
230
1.0
 40
0.4082480000000002
 41
3.678614102639607
 42
4.248741371361822
  0
LINE
  5
6B72
330
A
100
AcDbEntity
  8
0
  6
Continuous
 62
     9
100
AcDbLine
 10
141.8471289999999
 20
-119.7223119999998
 30
0.0
 11
141.8471289999999
 21
-75.90450699999997
 31
0.0
  0
LINE
  5
6B73
330
A
100
AcDbEntity
  8
0
  6
Continuous
 62
     9
100
AcDbLine
 10
118.0195890000003
 20
-71.04073099999976
 30
0.0
 11
118.0195890000003
 21
-114.8585349999997
 31
0.0
  0
LINE
  5
6B74
330
A
100
AcDbEntity
  8
0
  6
Continuous
 62
     7
100
AcDbLine
 10
141.8471289999999
 20
-119.7223119999998
 30
0.0
 11
118.0195890000003
 21
-114.8585349999997
 31
0.0
  0
ELLIPSE
  5
6B75
330
A
100
AcDbEntity
  8
0
  6
Continuous
 62
     7
100
AcDbEllipse
 10
151.8289369999999
 20
-94.55628599999995
 30
0.0
 11
-2.479999999215887
 21
-12.14946912436465
 31
-0.0000000000000009
210
-0.0000000000000001
220
-0.0000000000000001
230
1.0
 40
0.4082480000000002
 41
2.034443935769334
 42
3.60524026262464
  0
ELLIPSE
  5
6B76
330
A
100
AcDbEntity
  8
0
  6
Continuous
 62
     7
100
AcDbEllipse
 10
151.8289369999999
 20
-94.55628599999995
 30
0.0
 11
-2.479999999215885
 21
-12.1494691243646
 31
-0.0000000000000009
210
0.0
220
-0.0000000000000001
230
1.0
 40
0.4082480000000002
 41
3.605240262624618
 42
5.819537698144744
  0
ELLIPSE
  5
6B77
330
A
100
AcDbEntity
  8
0
  6
Continuous
 62
     7
100
AcDbEllipse
 10
151.4711659999999
 20
-94.48325599999975
 30
0.0
 11
2.399999999241232
 21
11.7575507655141
 31
0.0
210
0.0
220
0.0
230
1.0
 40
0.4082480000000002
 41
2.711011084995576
 42
3.141592653589783
  0
ELLIPSE
  5
6B78
330
A
100
AcDbEntity
  8
0
  6
Continuous
 62
     7
100
AcDbEllipse
 10
151.4711659999999
 20
-94.48325599999975
 30
0.0
 11
2.39999999924112
 21
11.7575507655141
 31
0.0000000000000008
210
0.0
220
-0.0000000000000001
230
1.0
 40
0.4082480000000002
 41
0.000000000000009
 42
0.4305815698314225
  0
ELLIPSE
  5
6B79
330
A
100
AcDbEntity
  8
0
  6
Continuous
 62
     7
100
AcDbEllipse
 10
123.2072669999999
 20
-66.80500999999975
 30
0.0
 11
10.80000000000002
 21
0.0000000006776801
 31
0.0000000000000005
210
0.0
220
-0.0000000000000001
230
1.0
 40
0.4082480000000002
 41
4.248741371361957
 42
4.421087185431313
  0
LINE
  5
6B7A
330
A
100
AcDbEntity
  8
0
  6
Continuous
 62
     7
100
AcDbLine
 10
152.3298160000001
 20
-81.87833399999977
 30
0.0
 11
150.8987320000002
 21
-83.04680899999977
 31
0.0
  0
ELLIPSE
  5
6B7B
330
A
100
AcDbEntity
  8
0
  6
Continuous
 62
     7
100
AcDbEllipse
 10
150.8987320000002
 20
-81.95136399999979
 30
0.0
 11
-0.2399999999240787
 21
-1.175755076551432
 31
0.0000000000000001
210
0.0
220
0.0000000000000001
230
1.0
 40
0.4082480000000002
 41
0.2255138084968806
 42
0.4636476089745329
  0
ELLIPSE
  5
6B7C
330
A
100
AcDbEntity
  8
0
  6
Continuous
 62
     7
100
AcDbEllipse
 10
152.3298160000001
 20
-80.78288899999979
 30
0.0
 11
-0.2399999999240787
 21
-1.175755076551432
 31
0.0
210
0.0
220
0.0
230
1.0
 40
0.4082480000000002
 41
0.4636476089744675
 42
2.034443935769428
  0
ELLIPSE
  5
6B7D
330
A
100
AcDbEntity
  8
0
  6
Continuous
 62
     7
100
AcDbEllipse
 10
151.1133950000002
 20
-81.99518199999994
 30
0.0
 11
0.2399999999240787
 21
1.175755076551376
 31
0.0000000000000001
210
0.0
220
-0.0000000000000001
230
1.0
 40
0.4082480000000002
 41
3.141592653589701
 42
3.605240262564166
  0
LINE
  5
6B7E
330
A
100
AcDbEntity
  8
0
  6
Continuous
 62
     9
100
AcDbLine
 10
151.1133950000002
 20
-83.09062699999975
 30
0.0
 11
150.8987320000002
 21
-83.04680899999977
 31
0.0
  0
LINE
  5
6B7F
330
A
100
AcDbEntity
  8
0
  6
Continuous
 62
     9
100
AcDbLine
 10
152.544478
 20
-81.92215199999976
 30
0.0
 11
152.3298160000001
 21
-81.87833399999977
 31
0.0
  0
ELLIPSE
  5
6B80
330
A
100
AcDbEntity
  8
0
  6
Continuous
 62
     7
100
AcDbEllipse
 10
123.2072669999999
 20
-110.6228139999998
 30
0.0
 11
11.59999999999994
 21
0.0000000007278622
 31
0.0000000000000005
210
0.0
220
0.0
230
1.0
 40
0.4082480000000003
 41
3.141592653589798
 42
4.248741371361927
  0
ELLIPSE
  5
6B81
330
A
100
AcDbEntity
  8
0
  6
Continuous
 62
     7
100
AcDbEllipse
 10
152.3298160000001
 20
-80.78288899999979
 30
0.0
 11
-0.2399999999240787
 21
-1.175755076551432
 31
-0.0000000000000001
210
-0.0000000000000001
220
-0.0000000000000001
230
1.0
 40
0.4082480000000002
 41
2.034443935769497
 42
2.916079248740586
  0
ELLIPSE
  5
6B82
330
A
100
AcDbEntity
  8
0
  6
Continuous
 62
     7
100
AcDbEllipse
 10
152.544478
 20
-80.82670699999983
 30
0.0
 11
0.2399999999240787
 21
1.175755076551432
 31
0.0
210
0.0
220
0.0
230
1.0
 40
0.4082480000000002
 41
0.0000000000000906
 42
0.463647608974442
  0
LINE
  5
6B83
330
A
100
AcDbEntity
  8
0
  6
Continuous
 62
     9
100
AcDbLine
 10
153.0811350000003
 20
-80.38852899999978
 30
0.0
 11
152.8664720000001
 21
-80.34471099999995
 31
0.0
  0
ELLIPSE
  5
6B84
330
A
100
AcDbEntity
  8
0
  6
Continuous
 62
     7
100
AcDbEllipse
 10
154.6911039999999
 20
-78.34369799999996
 30
0.0
 11
0.2239999999291698
 21
1.097371404781332
 31
0.0
210
0.0
220
0.0
230
1.0
 40
0.4082480000000003
 41
3.141592653589988
 42
5.176036589359193
  0
ELLIPSE
  5
6B85
330
A
100
AcDbEntity
  8
0
  6
Continuous
 62
     7
100
AcDbEllipse
 10
154.6911039999999
 20
-78.34369799999996
 30
0.0
 11
0.2239999999291698
 21
1.097371404781332
 31
0.0000000000000001
210
0.0
220
-0.0000000000000001
230
1.0
 40
0.4082480000000003
 41
6.283185307179584
 42
9.424777960769381
  0
ELLIPSE
  5
6B86
330
A
100
AcDbEntity
  8
0
  6
Continuous
 62
     7
100
AcDbEllipse
 10
160.3081060000002
 20
-56.85106499999995
 30
0.0
 11
0.4239999998659762
 21
2.077167301907543
 31
0.0000000000000001
210
0.0
220
-0.0000000000000001
230
1.0
 40
0.4082480000000002
 41
4.277897409254116
 42
5.146880551338396
  0
ELLIPSE
  5
6B87
330
A
100
AcDbEntity
  8
0
  6
Continuous
 62
     7
100
AcDbEllipse
 10
161.8465210000001
 20
-57.16509299999973
 30
0.0
 11
0.4239999998659762
 21
2.077167301907543
 31
0.0
210
0.0
220
0.0
230
1.0
 40
0.4082480000000002
 41
3.14159265358968
 42
5.176036589359129
  0
ELLIPSE
  5
6B88
330
A
100
AcDbEntity
  8
0
  6
Continuous
 62
     7
100
AcDbEllipse
 10
161.8465210000001
 20
-57.16509299999973
 30
0.0
 11
0.4239999998659762
 21
2.077167301907543
 31
0.0
210
0.0
220
0.0
230
1.0
 40
0.4082480000000002
 41
0.0000000000000513
 42
3.14159265358968
  0
ELLIPSE
  5
6B89
330
A
100
AcDbEntity
  8
0
  6
Continuous
 62
     7
100
AcDbEllipse
 10
157.982596
 20
-87.96170599999976
 30
0.0
 11
0.423999999865976
 21
2.077167301907488
 31
0.0
210
0.0
220
0.0
230
1.0
 40
0.4082480000000002
 41
4.277897405147463
 42
5.146880555533329
  0
ELLIPSE
  5
6B8A
330
A
100
AcDbEntity
  8
0
  6
Continuous
 62
     7
100
AcDbEllipse
 10
159.5210100000001
 20
-88.27573399999995
 30
0.0
 11
0.423999999865976
 21
2.077167301907488
 31
0.0
210
0.0
220
0.0
230
1.0
 40
0.4082480000000002
 41
3.1415926535899
 42
5.176036589359159
  0
ELLIPSE
  5
6B8B
330
A
100
AcDbEntity
  8
0
  6
Continuous
 62
     7
100
AcDbEllipse
 10
159.5210100000001
 20
-88.27573399999995
 30
0.0
 11
0.423999999865976
 21
2.077167301907488
 31
0.0
210
0.0
220
0.0
230
1.0
 40
0.4082480000000002
 41
6.283185307179535
 42
9.424777960769484
  0
ELLIPSE
  5
6B8C
330
A
100
AcDbEntity
  8
0
  6
Continuous
 62
     7
100
AcDbEllipse
 10
160.3081060000002
 20
-115.2748039999999
 30
0.0
 11
0.423999999865976
 21
2.077167301907488
 31
0.0
210
-0.0000000000000001
220
0.0
230
1.0
 40
0.4082480000000002
 41
4.27789740251625
 42
5.146880558257108
  0
ELLIPSE
  5
6B8D
330
A
100
AcDbEntity
  8
0
  6
Continuous
 62
     7
100
AcDbEllipse
 10
161.8465210000001
 20
-115.5888319999998
 30
0.0
 11
0.423999999865976
 21
2.077167301907488
 31
0.0
210
0.0
220
0.0
230
1.0
 40
0.4082480000000002
 41
3.141592653589905
 42
5.176036589359133
  0
ELLIPSE
  5
6B8E
330
A
100
AcDbEntity
  8
0
  6
Continuous
 62
     7
100
AcDbEllipse
 10
161.8465210000001
 20
-115.5888319999998
 30
0.0
 11
0.423999999865976
 21
2.077167301907488
 31
0.0
210
0.0
220
0.0
230
1.0
 40
0.4082480000000002
 41
6.283185307179535
 42
9.424777960769493
  0
ELLIPSE
  5
6B8F
330
A
100
AcDbEntity
  8
0
  6
Continuous
 62
     7
100
AcDbEllipse
 10
101.741014
 20
-48.1459279999998
 30
0.0
 11
-2.782804340963451
 21
3.408225344650016
 31
0.0000000000000003
210
0.0
220
-0.0000000000000001
230
1.0
 40
0.816497
 41
0.0
 42
0.5561219601891171
  0
LINE
  5
6B90
330
A
100
AcDbEntity
  8
0
  6
Continuous
 62
     7
100
AcDbLine
 10
101.741014
 20
-44.12929599999995
 30
0.0
 11
143.957977
 21
-52.74679699999978
 31
0.0
  0
ELLIPSE
  5
6B91
330
A
100
AcDbEntity
  8
0
  6
Continuous
 62
     7
100
AcDbEllipse
 10
143.957977
 20
-56.76342899999974
 30
0.0
 11
-2.782804340963451
 21
3.408225344650016
 31
0.0
210
0.0
220
0.0
230
1.0
 40
0.816497
 41
4.355892953395954
 42
5.497787143842512
  0
LINE
  5
6B92
330
A
100
AcDbEntity
  8
0
  6
Continuous
 62
     9
100
AcDbLine
 10
144.852405
 20
-52.01649999999995
 30
0.0
 11
144.3157480000002
 21
-52.45467899999994
 31
0.0
  0
LINE
  5
6B93
330
A
100
AcDbEntity
  8
0
  6
Continuous
 62
     9
100
AcDbLine
 10
144.3157480000002
 20
-52.45467899999994
 30
0.0
 11
143.957977
 21
-52.74679699999978
 31
0.0
  0
ELLIPSE
  5
6B94
330
A
100
AcDbEntity
  8
0
  6
Continuous
 62
     7
100
AcDbEllipse
 10
144.852405
 20
-56.03313299999991
 30
0.0
 11
-2.782804340963339
 21
3.408225344650014
 31
0.0
210
0.0
220
0.0
230
1.0
 40
0.8164970000000002
 41
4.341510895763796
 42
5.497787143842534
  0
LINE
  5
6B95
330
A
100
AcDbEntity
  8
0
  6
Continuous
 62
     9
100
AcDbLine
 10
102.635441
 20
-43.39899899999977
 30
0.0
 11
102.0987850000002
 21
-43.83717699999976
 31
0.0
  0
LINE
  5
6B96
330
A
100
AcDbEntity
  8
0
  6
Continuous
 62
     9
100
AcDbLine
 10
102.0987850000002
 20
-43.83717699999976
 30
0.0
 11
101.741014
 21
-44.12929599999995
 31
0.0
  0
LINE
  5
6B97
330
A
100
AcDbEntity
  8
0
  6
Continuous
 62
     7
100
AcDbLine
 10
102.635441
 20
-43.39899899999977
 30
0.0
 11
144.852405
 21
-52.01649999999995
 31
0.0
  0
ELLIPSE
  5
6B98
330
A
100
AcDbEntity
  8
0
  6
Continuous
 62
     7
100
AcDbEllipse
 10
102.635441
 20
-47.41563099999973
 30
0.0
 11
-2.782804340963451
 21
3.408225344650016
 31
0.0000000000000002
210
0.0
220
0.0
230
1.0
 40
0.816497
 41
5.497787143842512
 42
6.283185307179584
  0
ELLIPSE
  5
6B99
330
A
100
AcDbEntity
  8
0
  6
Continuous
 62
     7
100
AcDbEllipse
 10
101.741014
 20
-48.1459279999998
 30
0.0
 11
-2.782804340963451
 21
3.408225344650016
 31
0.0000000000000003
210
0.0
220
-0.0000000000000001
230
1.0
 40
0.816497
 41
5.497787143842512
 42
6.283185307179584
  0
ELLIPSE
  5
6B9A
330
A
100
AcDbEntity
  8
0
  6
Continuous
 62
     7
100
AcDbEllipse
 10
113.368567
 20
-56.17919199999994
 30
0.0
 11
4.806662043482231
 21
-5.886934686213704
 31
0.0
210
-0.0000000000000001
220
0.0
230
1.0
 40
0.816497
 41
2.03031153315007
 42
2.682077447355403
  0
ELLIPSE
  5
6B9B
330
A
100
AcDbEntity
  8
0
  6
Continuous
 62
     7
100
AcDbEllipse
 10
145.0312900000001
 20
-50.77499599999976
 30
0.0
 11
-5.599999999999936
 21
-0.0000000003513856
 31
0.0000000000000001
210
0.0
220
-0.0000000000000001
230
1.0
 40
0.4082480000000002
 41
2.677945044566889
 42
3.141592653589654
  0
LINE
  5
6B9C
330
A
100
AcDbEntity
  8
0
  6
Continuous
 62
     7
100
AcDbLine
 10
149.6823110000001
 20
-52.08952999999974
 30
0.0
 11
150.0400820000002
 21
-51.79741099999978
 31
0.0
  0
LINE
  5
6B9D
330
A
100
AcDbEntity
  8
0
  6
Continuous
 62
     7
100
AcDbLine
 10
97.44776300000001
 20
-41.42719799999997
 30
0.0
 11
149.6823110000001
 21
-52.08952999999974
 31
0.0
  0
LINE
  5
6B9E
330
A
100
AcDbEntity
  8
0
  6
Continuous
 62
     7
100
AcDbLine
 10
97.44776300000001
 20
-41.42719799999997
 30
0.0
 11
98.0810180000002
 21
-40.91014799999993
 31
0.0
  0
LINE
  5
6B9F
330
A
100
AcDbEntity
  8
0
  6
Continuous
 62
     7
100
AcDbLine
 10
98.77464500000019
 20
-40.44922799999994
 30
0.0
 11
98.0810180000002
 21
-40.91014799999993
 31
0.0
  0
ELLIPSE
  5
6BA0
330
A
100
AcDbEntity
  8
0
  6
Continuous
 62
     7
100
AcDbEllipse
 10
99.79710100000023
 20
-40.70567299999993
 30
0.0
 11
-1.199999999999978
 21
-0.0000000000752731
 31
0.0
210
0.0
220
0.0000000000000001
230
1.0
 40
0.4082480000000002
 41
4.926138023187791
 42
5.732271235556821
  0
ELLIPSE
  5
6BA1
330
A
100
AcDbEntity
  8
0
  6
Continuous
 62
     7
100
AcDbEllipse
 10
102.0880520000001
 20
-45.0144150000001
 30
0.0
 11
-11.9999999999999
 21
-0.0000000007529533
 31
-0.0000000000000004
210
0.0
220
0.0
230
1.0
 40
0.4082480000000002
 41
4.42275250450107
 42
4.926138023187751
  0
LINE
  5
6BA2
330
A
100
AcDbEntity
  8
0
  6
Continuous
 62
     7
100
AcDbLine
 10
107.5369020000001
 20
-40.56544799999994
 30
0.0
 11
105.515298
 21
-40.31948899999974
 31
0.0
  0
LINE
  5
6BA3
330
A
100
AcDbEntity
  8
0
  6
Continuous
 62
     7
100
AcDbLine
 10
107.5369020000001
 20
-40.56544799999994
 30
0.0
 11
147.5356859999999
 21
-48.73016499999994
 31
0.0
  0
LINE
  5
6BA4
330
A
100
AcDbEntity
  8
0
  6
Continuous
 62
     7
100
AcDbLine
 10
149.6823110000001
 20
-52.08952999999974
 30
0.0
 11
149.6823110000001
 21
-54.15763899999991
 31
0.0
  0
LINE
  5
6BA5
330
A
100
AcDbEntity
  8
0
  6
Continuous
 62
     9
100
AcDbLine
 10
150.0400820000002
 20
-53.84410799999978
 30
0.0
 11
150.0400820000002
 21
-51.79741099999978
 31
0.0
  0
LINE
  5
6BA6
330
A
100
AcDbEntity
  8
0
  6
Continuous
 62
     7
100
AcDbLine
 10
97.44776300000001
 20
-46.35670099999981
 30
0.0
 11
97.44776300000001
 21
-41.42719799999997
 31
0.0
  0
ELLIPSE
  5
6BA7
330
A
100
AcDbEntity
  8
0
  6
Continuous
 62
     7
100
AcDbEllipse
 10
144.6735190000001
 20
-56.17919199999994
 30
0.0
 11
-3.035786553778228
 21
3.718064012345422
 31
0.0
210
0.0
220
0.0
230
1.0
 40
0.816497
 41
4.372923049912445
 42
5.49778714384251
  0
LINE
  5
6BA8
330
A
100
AcDbEntity
  8
0
  6
Continuous
 62
     7
100
AcDbLine
 10
102.4565560000002
 20
-43.17990999999961
 30
0.0
 11
144.6735190000001
 21
-51.79741099999978
 31
0.0
  0
ELLIPSE
  5
6BA9
330
A
100
AcDbEntity
  8
0
  6
Continuous
 62
     7
100
AcDbEllipse
 10
102.4565560000002
 20
-47.56168999999999
 30
0.0
 11
-3.035786553778341
 21
3.718064012345533
 31
0.0000000000000002
210
0.0
220
0.0
230
1.0
 40
0.816497
 41
0.0
 42
0.474252001770438
  0
ELLIPSE
  5
6BAA
330
A
100
AcDbEntity
  8
0
  6
Continuous
 62
     7
100
AcDbEllipse
 10
145.0312900000001
 20
-50.77499599999976
 30
0.0
 11
-5.599999999999936
 21
-0.0000000003513856
 31
-0.0000000000000001
210
0.0
220
0.0
230
1.0
 40
0.4082480000000002
 41
3.141592653589751
 42
4.248741371361901
  0
ELLIPSE
  5
6BAB
330
A
100
AcDbEntity
  8
0
  6
Continuous
 62
     7
100
AcDbEllipse
 10
102.635441
 20
-47.41563099999973
 30
0.0
 11
-3.035786553778341
 21
3.718064012345533
 31
0.0000000000000002
210
0.0
220
-0.0000000000000001
230
1.0
 40
0.816497
 41
0.0294671095317979
 42
0.4316516314910638
  0
ELLIPSE
  5
6BAC
330
A
100
AcDbEntity
  8
0
  6
Continuous
 62
     7
100
AcDbEllipse
 10
102.4565560000002
 20
-47.56168999999999
 30
0.0
 11
-3.035786553778341
 21
3.718064012345533
 31
0.0000000000000002
210
0.0
220
-0.0000000000000001
230
1.0
 40
0.816497
 41
5.49778714384251
 42
6.283185307179584
  0
ELLIPSE
  5
6BAD
330
A
100
AcDbEntity
  8
0
  6
Continuous
 62
     7
100
AcDbEllipse
 10
139.4858410000001
 20
-55.30283599999996
 30
0.0
 11
-5.600000000000047
 21
-0.0000000003513856
 31
-0.0000000000000003
210
-0.0000000000000001
220
0.0
230
1.0
 40
0.4082480000000002
 41
1.107148717772297
 42
2.677945044566899
  0
LINE
  5
6BAE
330
A
100
AcDbEntity
  8
0
  6
Continuous
 62
     9
100
AcDbLine
 10
144.4946339999999
 20
-56.32525099999975
 30
0.0
 11
144.4946339999999
 21
-57.7445849999998
 31
0.0
  0
ELLIPSE
  5
6BAF
330
A
100
AcDbEntity
  8
0
  6
Continuous
 62
     7
100
AcDbEllipse
 10
139.4858410000001
 20
-72.09966099999997
 30
0.0
 11
-5.600000000000047
 21
-0.0000000003513856
 31
-0.0000000000000003
210
-0.0000000000000001
220
0.0
230
1.0
 40
0.4082480000000002
 41
1.10714871777229
 42
2.10592194718346
  0
LINE
  5
6BB0
330
A
100
AcDbEntity
  8
0
  6
Continuous
 62
     9
100
AcDbLine
 10
136.9814449999999
 20
-74.14449199999978
 30
0.0
 11
136.9814449999999
 21
-57.34766699999977
 31
0.0
  0
ELLIPSE
  5
6BB1
330
A
100
AcDbEntity
  8
0
  6
Continuous
 62
     7
100
AcDbEllipse
 10
92.61356599999999
 20
-46.57100499999978
 30
0.0
 11
-1.20000000000009
 21
-0.0000000000752731
 31
0.0
210
0.0
220
0.0
230
1.0
 40
0.4082480000000002
 41
5.906804160756284
 42
6.283185307179308
  0
LINE
  5
6BB2
330
A
100
AcDbEntity
  8
0
  6
Continuous
 62
     7
100
AcDbLine
 10
91.98460200000022
 20
-45.88784999999996
 30
0.0
 11
91.497565
 21
-46.390939
 31
0.0
  0
LINE
  5
6BB3
330
A
100
AcDbEntity
  8
0
  6
Continuous
 62
     7
100
AcDbLine
 10
91.98460200000022
 20
-45.88784999999996
 30
0.0
 11
92.61785700000018
 21
-45.37079999999991
 31
0.0
  0
LINE
  5
6BB4
330
A
100
AcDbEntity
  8
0
  6
Continuous
 62
     7
100
AcDbLine
 10
92.61785700000018
 20
-45.37079999999991
 30
0.0
 11
144.852405
 21
-56.03313299999991
 31
0.0
  0
LINE
  5
6BB5
330
A
100
AcDbEntity
  8
0
  6
Continuous
 62
     7
100
AcDbLine
 10
144.4946339999999
 20
-56.32525099999975
 30
0.0
 11
144.852405
 21
-56.03313299999991
 31
0.0
  0
LINE
  5
6BB6
330
A
100
AcDbEntity
  8
0
  6
Continuous
 62
     7
100
AcDbLine
 10
96.98266100000001
 20
-49.18294899999978
 30
0.0
 11
136.9814449999999
 21
-57.34766699999977
 31
0.0
  0
LINE
  5
6BB7
330
A
100
AcDbEntity
  8
0
  6
Continuous
 62
     7
100
AcDbLine
 10
95.28772100000002
 20
-48.67027099999984
 30
0.0
 11
96.98266100000001
 21
-49.18294899999978
 31
0.0
  0
ELLIPSE
  5
6BB8
330
A
100
AcDbEntity
  8
0
  6
Continuous
 62
     7
100
AcDbEllipse
 10
102.4315119999999
 20
-44.73398099999974
 30
0.0
 11
-12.00000000000001
 21
-0.0000000007529533
 31
-0.0000000000000005
210
0.0
220
0.0
230
1.0
 40
0.4082480000000002
 41
0.429752065945965
 42
0.933137584632974
  0
LINE
  5
6BB9
330
A
100
AcDbEntity
  8
0
  6
Continuous
 62
     7
100
AcDbLine
 10
128.51719
 20
-72.74536599999982
 30
0.0
 11
107.2864629999999
 21
-68.41166199999981
 31
0.0
  0
ELLIPSE
  5
6BBA
330
A
100
AcDbEntity
  8
0
  6
Continuous
 62
     7
100
AcDbEllipse
 10
107.2864629999999
 20
-69.50710699999996
 30
0.0
 11
-0.7589466384445574
 21
0.9295160030864391
 31
0.0
210
0.0
220
0.0
230
1.0
 40
0.8164970000000002
 41
0.0000000000001756
 42
0.7853981634580887
  0
LINE
  5
6BBB
330
A
100
AcDbEntity
  8
0
  6
Continuous
 62
     7
100
AcDbLine
 10
106.2131500000001
 20
-69.28801799999973
 30
0.0
 11
106.2131500000001
 21
-111.7182589999997
 31
0.0
  0
ELLIPSE
  5
6BBC
330
A
100
AcDbEntity
  8
0
  6
Continuous
 62
     7
100
AcDbEllipse
 10
107.2864629999999
 20
-111.9373479999998
 30
0.0
 11
-0.7589466384445574
 21
0.9295160030863279
 31
0.0
210
0.0
220
0.0
230
1.0
 40
0.816497
 41
0.7853981634579938
 42
2.356194490252474
  0
LINE
  5
6BBD
330
A
100
AcDbEntity
  8
0
  6
Continuous
 62
     7
100
AcDbLine
 10
107.2864629999999
 20
-113.0327929999997
 30
0.0
 11
128.51719
 21
-117.3664979999999
 31
0.0
  0
ELLIPSE
  5
6BBE
330
A
100
AcDbEntity
  8
0
  6
Continuous
 62
     7
100
AcDbEllipse
 10
129.1104859999999
 20
-116.5747329999998
 30
0.0
 11
0.7589466384445574
 21
-0.9295160030863279
 31
0.0
210
0.0
220
0.0
230
1.0
 40
0.816497
 41
4.91210160038507
 42
5.497787143842066
  0
LINE
  5
6BBF
330
A
100
AcDbEntity
  8
0
  6
Continuous
 62
     7
100
AcDbLine
 10
129.1104859999999
 20
-117.6701779999998
 30
0.0
 11
129.1104859999999
 21
-117.8162369999999
 31
0.0
  0
LINE
  5
6BC0
330
A
100
AcDbEntity
  8
0
  6
Continuous
 62
     7
100
AcDbLine
 10
129.1104859999999
 20
-117.8162369999999
 30
0.0
 11
136.9814449999999
 21
-119.4228899999999
 31
0.0
  0
LINE
  5
6BC1
330
A
100
AcDbEntity
  8
0
  6
Continuous
 62
     9
100
AcDbLine
 10
136.9814449999999
 20
-136.2197149999999
 30
0.0
 11
136.9814449999999
 21
-119.4228899999999
 31
0.0
  0
LINE
  5
6BC2
330
A
100
AcDbEntity
  8
0
  6
Continuous
 62
     7
100
AcDbLine
 10
136.9814449999999
 20
-136.2197149999999
 30
0.0
 11
96.98266100000001
 21
-128.0549969999998
 31
0.0
  0
LINE
  5
6BC3
330
A
100
AcDbEntity
  8
0
  6
Continuous
 62
     7
100
AcDbLine
 10
96.98266100000001
 20
-128.0549969999998
 30
0.0
 11
96.98266100000001
 21
-49.18294899999978
 31
0.0
  0
LINE
  5
6BC4
330
A
100
AcDbEntity
  8
0
  6
Continuous
 62
     7
100
AcDbLine
 10
136.9814449999999
 20
-74.14449199999978
 30
0.0
 11
129.1104859999999
 21
-72.53783899999973
 31
0.0
  0
LINE
  5
6BC5
330
A
100
AcDbEntity
  8
0
  6
Continuous
 62
     7
100
AcDbLine
 10
129.1104859999999
 20
-72.53783899999973
 30
0.0
 11
129.1104859999999
 21
-72.68389799999983
 31
0.0
  0
ELLIPSE
  5
6BC6
330
A
100
AcDbEntity
  8
0
  6
Continuous
 62
     7
100
AcDbEllipse
 10
129.1104859999999
 20
-73.77934299999975
 30
0.0
 11
0.7589466384445576
 21
-0.9295160030863836
 31
0.0
210
-0.0000000000000001
220
0.0
230
1.0
 40
0.816497
 41
2.356194490252399
 42
2.94188003370962
  0
LINE
  5
6BC7
330
A
100
AcDbEntity
  8
0
  6
Continuous
 62
     7
100
AcDbLine
 10
144.852405
 20
-56.03313299999991
 30
0.0
 11
144.852405
 21
-57.53906599999982
 31
0.0
  0
LINE
  5
6BC8
330
A
100
AcDbEntity
  8
0
  6
Continuous
 62
     7
100
AcDbLine
 10
129.1104859999999
 20
-72.68389799999983
 30
0.0
 11
129.2535939999999
 21
-72.56705099999976
 31
0.0
  0
LINE
  5
6BC9
330
A
100
AcDbEntity
  8
0
  6
Continuous
 62
     9
100
AcDbLine
 10
95.28772100000002
 20
-48.67027099999984
 30
0.0
 11
95.28772100000002
 21
-127.5423189999999
 31
0.0
  0
LINE
  5
6BCA
330
A
100
AcDbEntity
  8
0
  6
Continuous
 62
     7
100
AcDbLine
 10
96.98266100000001
 20
-128.0549969999998
 30
0.0
 11
95.28772100000002
 21
-127.5423189999999
 31
0.0
  0
LINE
  5
6BCB
330
A
100
AcDbEntity
  8
0
  6
Continuous
 62
     9
100
AcDbLine
 10
91.52268300000002
 20
-46.7751189999999
 30
0.0
 11
91.52268300000002
 21
-125.6471669999998
 31
0.0
  0
ELLIPSE
  5
6BCC
330
A
100
AcDbEntity
  8
0
  6
Continuous
 62
     7
100
AcDbEllipse
 10
102.4315119999999
 20
-123.6060299999998
 30
0.0
 11
12.00000000000001
 21
0.0000000007528977
 31
0.0000000000000005
210
0.0
220
-0.0000000000000001
230
1.0
 40
0.4082480000000002
 41
3.571344719535953
 42
4.074730238222953
  0
ELLIPSE
  5
6BCD
330
A
100
AcDbEntity
  8
0
  6
Continuous
 62
     7
100
AcDbEllipse
 10
107.2864629999999
 20
-69.50710699999996
 30
0.0
 11
-0.7589466384445574
 21
0.9295160030864391
 31
0.0
210
0.0
220
0.0
230
1.0
 40
0.8164970000000002
 41
5.497787143842492
 42
6.283185307179513
  0
LINE
  5
6BCE
330
A
100
AcDbEntity
  8
0
  6
Continuous
 62
     9
100
AcDbLine
 10
107.2864629999999
 20
-68.41166199999981
 30
0.0
 11
106.2131500000001
 21
-69.28801799999973
 31
0.0
  0
LINE
  5
6BCF
330
A
100
AcDbEntity
  8
0
  6
Continuous
 62
     9
100
AcDbLine
 10
106.2131500000001
 20
-111.7182589999997
 30
0.0
 11
111.607267
 21
-107.3139809999997
 31
0.0
  0
ELLIPSE
  5
6BD0
330
A
100
AcDbEntity
  8
0
  6
Continuous
 62
     7
100
AcDbEllipse
 10
92.61356599999999
 20
-46.57100499999978
 30
0.0
 11
-1.20000000000009
 21
-0.0000000000752731
 31
-0.0000000000000001
210
-0.0000000000000001
220
0.0
230
1.0
 40
0.4082480000000002
 41
6.283185307179492
 42
6.712937373125317
  0
ELLIPSE
  5
6BD1
330
A
100
AcDbEntity
  8
0
  6
Continuous
 62
     7
100
AcDbEllipse
 10
92.61356599999999
 20
-125.4430529999999
 30
0.0
 11
1.20000000000009
 21
0.0000000000752731
 31
0.0000000000000001
210
-0.0000000000000001
220
0.0
230
1.0
 40
0.4082480000000002
 41
3.141592653589975
 42
3.571344719535731
  0
ELLIPSE
  5
6BD2
330
A
100
AcDbEntity
  8
0
  6
Continuous
 62
     7
100
AcDbEllipse
 10
139.4858410000001
 20
-117.3780589999998
 30
0.0
 11
5.600000000000047
 21
0.0000000003513856
 31
0.0000000000000002
210
0.0
220
-0.0000000000000001
230
1.0
 40
0.4082480000000002
 41
4.248741371362299
 42
5.003303665089958
  0
LINE
  5
6BD3
330
A
100
AcDbEntity
  8
0
  6
Continuous
 62
     7
100
AcDbLine
 10
129.1104859999999
 20
-117.8162369999999
 30
0.0
 11
129.7902510000002
 21
-117.2612119999998
 31
0.0
  0
ELLIPSE
  5
6BD4
330
A
100
AcDbEntity
  8
0
  6
Continuous
 62
     7
100
AcDbEllipse
 10
139.4858410000001
 20
-134.1748839999998
 30
0.0
 11
5.600000000000047
 21
0.0000000003513856
 31
0.0
210
0.0
220
-0.0000000000000001
230
1.0
 40
0.4082480000000002
 41
4.248741371362279
 42
5.247514600773452
  0
LINE
  5
6BD5
330
A
100
AcDbEntity
  8
0
  6
Continuous
 62
     7
100
AcDbLine
 10
128.51719
 20
-117.3664979999999
 30
0.0
 11
128.8749610000002
 21
-117.0743789999999
 31
0.0
  0
LINE
  5
6BD6
330
A
100
AcDbEntity
  8
0
  6
Continuous
 62
     7
100
AcDbLine
 10
129.6471419999999
 20
-117.2319999999997
 30
0.0
 11
129.1104859999999
 21
-117.6701779999998
 31
0.0
  0
LINE
  5
6BD7
330
A
100
AcDbEntity
  8
0
  6
Continuous
 62
     9
100
AcDbLine
 10
111.607267
 20
-109.5048719999997
 30
0.0
 11
107.2864629999999
 21
-113.0327929999997
 31
0.0
  0
ELLIPSE
  5
6BD8
330
A
100
AcDbEntity
  8
0
  6
Continuous
 62
     7
100
AcDbEllipse
 10
151.8289369999999
 20
-94.55628599999995
 30
0.0
 11
2.351999999646856
 21
11.52239975012414
 31
0.0
210
-0.0000000000000001
220
0.0
230
1.0
 40
0.4082480000000002
 41
5.819537698253822
 42
6.746832916167885
  0
ELLIPSE
  5
6BD9
330
A
100
AcDbEntity
  8
0
  6
Continuous
 62
     7
100
AcDbEllipse
 10
151.8289369999999
 20
-94.55628599999995
 30
0.0
 11
2.351999999646968
 21
11.52239975012414
 31
0.0000000000000008
210
0.0
220
-0.0000000000000001
230
1.0
 40
0.4082480000000002
 41
3.605240262515543
 42
5.819537698253825
  0
ELLIPSE
  5
6BDA
330
A
100
AcDbEntity
  8
0
  6
Continuous
 62
     7
100
AcDbEllipse
 10
151.6142740000001
 20
-94.51246799999978
 30
0.0
 11
-2.399999999639689
 21
-11.75755076543278
 31
-0.0000000000000008
210
0.0
220
-0.0000000000000001
230
1.0
 40
0.4082480000000002
 41
0.0
 42
0.4636476089257541
  0
ELLIPSE
  5
6BDB
330
A
100
AcDbEntity
  8
0
  6
Continuous
 62
     7
100
AcDbEllipse
 10
151.8289369999999
 20
-94.55628599999995
 30
0.0
 11
2.351999999646968
 21
11.52239975012414
 31
0.0000000000000008
210
0.0
220
-0.0000000000000001
230
1.0
 40
0.4082480000000002
 41
0.4636476089883094
 42
3.605240262515543
  0
ELLIPSE
  5
6BDC
330
A
100
AcDbEntity
  8
0
  6
Continuous
 62
     7
100
AcDbEllipse
 10
151.6142740000001
 20
-94.51246799999978
 30
0.0
 11
-2.399999999639689
 21
-11.75755076543278
 31
-0.0000000000000008
210
0.0
220
-0.0000000000000001
230
1.0
 40
0.4082480000000002
 41
3.141592653589801
 42
3.605240262578091
  0
ELLIPSE
  5
6BDD
330
A
100
AcDbEntity
  8
0
  6
Continuous
 62
     7
100
AcDbEllipse
 10
151.6142740000001
 20
-94.51246799999978
 30
0.0
 11
-2.399999999639689
 21
-11.75755076543278
 31
0.0
210
0.0
220
0.0
230
1.0
 40
0.4082480000000002
 41
5.456902070112191
 42
6.283185307179584
  0
ELLIPSE
  5
6BDE
330
A
100
AcDbEntity
  8
0
  6
Continuous
 62
     7
100
AcDbEllipse
 10
151.6142740000001
 20
-94.51246799999978
 30
0.0
 11
-2.399999999639689
 21
-11.75755076543278
 31
0.0
210
0.0
220
0.0
230
1.0
 40
0.4082480000000002
 41
3.605240262578091
 42
3.96787590031707
  0
ELLIPSE
  5
6BDF
330
A
100
AcDbEntity
  8
0
  6
Continuous
 62
     7
100
AcDbEllipse
 10
151.6142740000001
 20
-94.51246799999978
 30
0.0
 11
-2.399999999639689
 21
-11.75755076543278
 31
0.0
210
0.0
220
0.0
230
1.0
 40
0.4082480000000002
 41
2.677945044664038
 42
3.141592653589794
  0
ELLIPSE
  5
6BE0
330
A
100
AcDbEntity
  8
0
  6
Continuous
 62
     7
100
AcDbEllipse
 10
151.8289369999999
 20
-85.06242799999995
 30
0.0
 11
-0.2479999999627225
 21
-1.214946912428014
 31
-0.0000000000000001
210
0.0
220
-0.0000000000000001
230
1.0
 40
0.4082480000000002
 41
0.0000000000000883
 42
0.4636476089882153
  0
ELLIPSE
  5
6BE1
330
A
100
AcDbEntity
  8
0
  6
Continuous
 62
     7
100
AcDbEllipse
 10
151.8289369999999
 20
-104.0501429999997
 30
0.0
 11
-0.2479999999627225
 21
-1.214946912428014
 31
-0.0000000000000001
210
0.0
220
-0.0000000000000001
230
1.0
 40
0.4082480000000002
 41
0.0000000000000883
 42
0.4636476089882271
  0
ELLIPSE
  5
6BE2
330
A
100
AcDbEntity
  8
0
  6
Continuous
 62
     7
100
AcDbEllipse
 10
156.4799579999999
 20
-90.75874299999975
 30
0.0
 11
-0.2479999999627225
 21
-1.214946912428014
 31
-0.0000000000000001
210
0.0
220
-0.0000000000000001
230
1.0
 40
0.4082480000000002
 41
0.0000000000000883
 42
0.4636476089882153
  0
ELLIPSE
  5
6BE3
330
A
100
AcDbEntity
  8
0
  6
Continuous
 62
     7
100
AcDbEllipse
 10
147.1779150000002
 20
-98.35382899999979
 30
0.0
 11
-0.2479999999627225
 21
-1.214946912428014
 31
-0.0000000000000001
210
0.0
220
-0.0000000000000001
230
1.0
 40
0.4082480000000002
 41
6.283185307179486
 42
6.7468329161679
  0
ELLIPSE
  5
6BE4
330
A
100
AcDbEntity
  8
0
  6
Continuous
 62
     7
100
AcDbEllipse
 10
147.1779150000002
 20
-98.35382899999979
 30
0.0
 11
-0.2479999999627225
 21
-1.214946912428014
 31
0.0
210
0.0
220
0.0
230
1.0
 40
0.4082480000000002
 41
0.4636476089883143
 42
3.141592653589975
  0
ELLIPSE
  5
6BE5
330
A
100
AcDbEntity
  8
0
  6
Continuous
 62
     7
100
AcDbEllipse
 10
147.1779150000002
 20
-98.35382899999979
 30
0.0
 11
-0.2479999999627225
 21
-1.214946912428014
 31
0.0
210
0.0
220
0.0
230
1.0
 40
0.4082480000000002
 41
3.141592653589975
 42
6.283185307179577
  0
ELLIPSE
  5
6BE6
330
A
100
AcDbEntity
  8
0
  6
Continuous
 62
     7
100
AcDbEllipse
 10
151.8289369999999
 20
-85.06242799999995
 30
0.0
 11
-0.2479999999627225
 21
-1.214946912428014
 31
0.0
210
0.0
220
0.0
230
1.0
 40
0.4082480000000002
 41
0.4636476089883014
 42
3.141592653589626
  0
ELLIPSE
  5
6BE7
330
A
100
AcDbEntity
  8
0
  6
Continuous
 62
     7
100
AcDbEllipse
 10
151.8289369999999
 20
-85.06242799999995
 30
0.0
 11
-0.2479999999627225
 21
-1.214946912428014
 31
0.0
210
0.0
220
0.0
230
1.0
 40
0.4082480000000002
 41
3.141592653589626
 42
6.283185307179672
  0
ELLIPSE
  5
6BE8
330
A
100
AcDbEntity
  8
0
  6
Continuous
 62
     7
100
AcDbEllipse
 10
151.8289369999999
 20
-104.0501429999997
 30
0.0
 11
-0.2479999999627225
 21
-1.214946912428014
 31
0.0000000000000001
210
0.0
220
0.0000000000000001
230
1.0
 40
0.4082480000000002
 41
0.463647608988226
 42
3.141592653589626
  0
ELLIPSE
  5
6BE9
330
A
100
AcDbEntity
  8
0
  6
Continuous
 62
     7
100
AcDbEllipse
 10
151.8289369999999
 20
-104.0501429999997
 30
0.0
 11
-0.2479999999627225
 21
-1.214946912428014
 31
0.0
210
0.0
220
0.0
230
1.0
 40
0.4082480000000002
 41
3.141592653589626
 42
6.283185307179672
  0
ELLIPSE
  5
6BEA
330
A
100
AcDbEntity
  8
0
  6
Continuous
 62
     7
100
AcDbEllipse
 10
156.4799579999999
 20
-90.75874299999975
 30
0.0
 11
-0.2479999999627225
 21
-1.214946912428014
 31
0.0
210
0.0
220
0.0
230
1.0
 40
0.4082480000000002
 41
0.4636476089883014
 42
3.141592653589696
  0
ELLIPSE
  5
6BEB
330
A
100
AcDbEntity
  8
0
  6
Continuous
 62
     7
100
AcDbEllipse
 10
156.4799579999999
 20
-90.75874299999975
 30
0.0
 11
-0.2479999999627225
 21
-1.214946912428014
 31
0.0
210
0.0
220
0.0
230
1.0
 40
0.4082480000000002
 41
3.141592653589694
 42
6.283185307179672
  0
LINE
  5
6BEC
330
A
100
AcDbEntity
  8
0
  6
Continuous
 62
     7
100
AcDbLine
 10
106.7875770000001
 20
-109.2693009999997
 30
0.0
 11
107.3475430000002
 21
-109.3836029999998
 31
0.0
  0
LINE
  5
6BED
330
A
100
AcDbEntity
  8
0
  6
Continuous
 62
     7
100
AcDbLine
 10
107.9875430000002
 20
-106.2482559999997
 30
0.0
 11
107.4275769999999
 21
-106.1339539999999
 31
0.0
  0
LINE
  5
6BEE
330
A
100
AcDbEntity
  8
0
  6
Continuous
 62
     7
100
AcDbLine
 10
106.7875770000001
 20
-73.41172999999975
 30
0.0
 11
107.3475430000002
 21
-73.52603299999981
 31
0.0
  0
LINE
  5
6BEF
330
A
100
AcDbEntity
  8
0
  6
Continuous
 62
     7
100
AcDbLine
 10
107.9875430000002
 20
-70.39068599999996
 30
0.0
 11
107.4275769999999
 21
-70.27638399999978
 31
0.0
  0
LINE
  5
6BF0
330
A
100
AcDbEntity
  8
0
  6
Continuous
 62
     7
100
AcDbLine
 10
99.85263700000018
 20
-44.00740599999972
 30
0.0
 11
99.31597999999997
 21
-44.44558399999993
 31
0.0
  0
ARC
  5
6BF1
330
A
100
AcDbEntity
  8
0
  6
Continuous
 62
     7
100
AcDbCircle
 10
153.5282260000002
 20
-78.18983699999995
 30
0.0
 40
1.27
100
AcDbArc
 50
305.3784990000008
 51
35.2547879999997
  0
LINE
  5
6BF2
330
A
100
AcDbEntity
  8
0
  6
Continuous
 62
     7
100
AcDbLine
 10
142.3415560000002
 20
-59.10768199999996
 30
0.0
 11
142.3415560000002
 21
-137.9797299999998
 31
0.0
  0
LINE
  5
6BF3
330
A
100
AcDbEntity
  8
0
  6
Continuous
 62
     7
100
AcDbLine
 10
111.607267
 20
-69.29364299999974
 30
0.0
 11
111.607267
 21
-110.6228139999998
 31
0.0
  0
LINE
  5
6BF4
330
A
100
AcDbEntity
  8
0
  6
Continuous
 62
     7
100
AcDbLine
 10
99.85263700000018
 20
-44.00740599999972
 30
0.0
 11
99.31597999999997
 21
-44.44558399999993
 31
0.0
  0
LINE
  5
6BF5
330
A
100
AcDbEntity
  8
0
  6
Continuous
 62
     7
100
AcDbLine
 10
99.31597999999997
 20
-44.44558399999993
 30
0.0
 11
98.95821000000024
 21
-44.73770199999978
 31
0.0
  0
LINE
  5
6BF6
330
A
100
AcDbEntity
  8
0
  6
Continuous
 62
     7
100
AcDbLine
 10
150.6312900000001
 20
-53.29720199999974
 30
0.0
 11
150.6312900000001
 21
-50.77499599999976
 31
0.0
  0
LINE
  5
6BF7
330
A
100
AcDbEntity
  8
0
  6
Continuous
 62
     7
100
AcDbLine
 10
91.41356600000017
 20
-46.57100499999978
 30
0.0
 11
91.41356600000017
 21
-125.4430529999999
 31
0.0
  0
LINE
  5
6BF8
330
A
100
AcDbEntity
  8
0
  6
Continuous
 62
     7
100
AcDbLine
 10
151.6142740000001
 20
-105.4669189999999
 30
0.0
 11
151.8289369999999
 21
-105.2916479999999
 31
0.0
  0
LINE
  5
6BF9
330
A
100
AcDbEntity
  8
0
  6
Continuous
 62
     7
100
AcDbLine
 10
156.0363220000001
 20
-84.67975299999995
 30
0.0
 11
155.9075250000002
 21
-84.43437299999983
 31
0.0
  0
LINE
  5
6BFA
330
A
100
AcDbEntity
  8
0
  6
Continuous
 62
     7
100
AcDbLine
 10
154.0142739999999
 20
-82.7549169999998
 30
0.0
 11
153.8711659999999
 21
-82.72570499999977
 31
0.0
  0
LINE
  5
6BFB
330
A
100
AcDbEntity
  8
0
  6
Continuous
 62
     7
100
AcDbLine
 10
149.0711660000002
 20
-106.2408069999999
 30
0.0
 11
149.2142740000001
 21
-106.2700189999998
 31
0.0
  0
LINE
  5
6BFC
330
A
100
AcDbEntity
  8
0
  6
Continuous
 62
     9
100
AcDbLine
 10
121.8729530000001
 20
86.04999999999995
 30
0.0
 11
122.8729530000001
 21
86.04999999999995
 31
0.0
  0
LINE
  5
6BFD
330
A
100
AcDbEntity
  8
0
  6
Continuous
 62
     7
100
AcDbLine
 10
121.8729530000001
 20
91.55000000000018
 30
0.0
 11
122.8729530000001
 21
91.55000000000018
 31
0.0
  0
LINE
  5
6BFE
330
A
100
AcDbEntity
  8
0
  6
Continuous
 62
     7
100
AcDbLine
 10
122.8729530000001
 20
86.04999999999995
 30
0.0
 11
122.8729530000001
 21
91.55000000000018
 31
0.0
  0
LINE
  5
6BFF
330
A
100
AcDbEntity
  8
0
  6
Continuous
 62
     9
100
AcDbLine
 10
121.8729530000001
 20
-7.949999999999931
 30
0.0
 11
122.8729530000001
 21
-7.949999999999931
 31
0.0
  0
LINE
  5
6C00
330
A
100
AcDbEntity
  8
0
  6
Continuous
 62
     7
100
AcDbLine
 10
122.8729530000001
 20
-7.949999999999931
 30
0.0
 11
122.8729530000001
 21
86.04999999999995
 31
0.0
  0
LINE
  5
6C01
330
A
100
AcDbEntity
  8
0
  6
Continuous
 62
     7
100
AcDbLine
 10
121.8729530000001
 20
-13.44999999999982
 30
0.0
 11
122.8729530000001
 21
-13.44999999999982
 31
0.0
  0
LINE
  5
6C02
330
A
100
AcDbEntity
  8
0
  6
Continuous
 62
     7
100
AcDbLine
 10
122.8729530000001
 20
-13.44999999999982
 30
0.0
 11
122.8729530000001
 21
-7.949999999999931
 31
0.0
  0
LINE
  5
6C03
330
A
100
AcDbEntity
  8
0
  6
Continuous
 62
     7
100
AcDbLine
 10
135.3729529999999
 20
91.55000000000018
 30
0.0
 11
134.8729530000001
 21
91.55000000000018
 31
0.0
  0
LINE
  5
6C04
330
A
100
AcDbEntity
  8
0
  6
Continuous
 62
     9
100
AcDbLine
 10
135.3729529999999
 20
86.04999999999995
 30
0.0
 11
134.8729530000001
 21
86.04999999999995
 31
0.0
  0
LINE
  5
6C05
330
A
100
AcDbEntity
  8
0
  6
Continuous
 62
     7
100
AcDbLine
 10
134.8729530000001
 20
91.55000000000018
 30
0.0
 11
134.8729530000001
 21
86.04999999999995
 31
0.0
  0
LINE
  5
6C06
330
A
100
AcDbEntity
  8
0
  6
Continuous
 62
     9
100
AcDbLine
 10
135.3729529999999
 20
-7.949999999999931
 30
0.0
 11
134.8729530000001
 21
-7.949999999999931
 31
0.0
  0
LINE
  5
6C07
330
A
100
AcDbEntity
  8
0
  6
Continuous
 62
     7
100
AcDbLine
 10
134.8729530000001
 20
86.04999999999995
 30
0.0
 11
134.8729530000001
 21
-7.949999999999931
 31
0.0
  0
LINE
  5
6C08
330
A
100
AcDbEntity
  8
0
  6
Continuous
 62
     7
100
AcDbLine
 10
135.3729529999999
 20
-13.44999999999982
 30
0.0
 11
134.8729530000001
 21
-13.44999999999982
 31
0.0
  0
LINE
  5
6C09
330
A
100
AcDbEntity
  8
0
  6
Continuous
 62
     7
100
AcDbLine
 10
134.8729530000001
 20
-7.949999999999931
 30
0.0
 11
134.8729530000001
 21
-13.44999999999982
 31
0.0
  0
LINE
  5
6C0A
330
A
100
AcDbEntity
  8
0
  6
Continuous
 62
     7
100
AcDbLine
 10
124.3729530000001
 20
88.05000000000006
 30
0.0
 11
124.3729530000001
 21
78.55000000000018
 31
0.0
  0
LINE
  5
6C0B
330
A
100
AcDbEntity
  8
0
  6
Continuous
 62
     9
100
AcDbLine
 10
133.8729530000001
 20
78.55000000000018
 30
0.0
 11
124.3729530000001
 21
78.55000000000018
 31
0.0
  0
LINE
  5
6C0C
330
A
100
AcDbEntity
  8
0
  6
Continuous
 62
     9
100
AcDbLine
 10
133.8729530000001
 20
-0.4499999999998181
 30
0.0
 11
124.3729530000001
 21
-0.4499999999998181
 31
0.0
  0
LINE
  5
6C0D
330
A
100
AcDbEntity
  8
0
  6
Continuous
 62
     7
100
AcDbLine
 10
124.3729530000001
 20
78.55000000000018
 30
0.0
 11
124.3729530000001
 21
-0.4499999999998181
 31
0.0
  0
LINE
  5
6C0E
330
A
100
AcDbEntity
  8
0
  6
Continuous
 62
     7
100
AcDbLine
 10
124.3729530000001
 20
-0.4499999999998181
 30
0.0
 11
124.3729530000001
 21
-9.949999999999931
 31
0.0
  0
LINE
  5
6C0F
330
A
100
AcDbEntity
  8
0
  6
Continuous
 62
     9
100
AcDbLine
 10
112.8729530000001
 20
9.000000000000227
 30
0.0
 11
112.8729530000001
 21
69.00000000000023
 31
0.0
  0
LINE
  5
6C10
330
A
100
AcDbEntity
  8
0
  6
Continuous
 62
     7
100
AcDbLine
 10
112.8729530000001
 20
9.000000000000227
 30
0.0
 11
113.8729530000001
 21
9.000000000000227
 31
0.0
  0
LINE
  5
6C11
330
A
100
AcDbEntity
  8
0
  6
Continuous
 62
     7
100
AcDbLine
 10
113.8729530000001
 20
69.00000000000023
 30
0.0
 11
112.8729530000001
 21
69.00000000000023
 31
0.0
  0
LINE
  5
6C12
330
A
100
AcDbEntity
  8
0
  6
Continuous
 62
     9
100
AcDbLine
 10
144.8729530000001
 20
9.000000000000227
 30
0.0
 11
144.8729530000001
 21
69.00000000000023
 31
0.0
  0
LINE
  5
6C13
330
A
100
AcDbEntity
  8
0
  6
Continuous
 62
     7
100
AcDbLine
 10
143.372953
 20
9.000000000000227
 30
0.0
 11
144.8729530000001
 21
9.000000000000227
 31
0.0
  0
LINE
  5
6C14
330
A
100
AcDbEntity
  8
0
  6
Continuous
 62
     7
100
AcDbLine
 10
144.8729530000001
 20
69.00000000000023
 30
0.0
 11
143.372953
 21
69.00000000000023
 31
0.0
  0
LINE
  5
6C15
330
A
100
AcDbEntity
  8
0
  6
Continuous
 62
     9
100
AcDbLine
 10
93.87295300000017
 20
93.00000000000023
 30
0.0
 11
93.87295300000017
 21
-15.0
 31
0.0
  0
LINE
  5
6C16
330
A
100
AcDbEntity
  8
0
  6
Continuous
 62
     7
100
AcDbLine
 10
93.87295300000017
 20
-15.0
 30
0.0
 11
93.37295300000006
 21
-15.0
 31
0.0
  0
LINE
  5
6C17
330
A
100
AcDbEntity
  8
0
  6
Continuous
 62
     7
100
AcDbLine
 10
93.37295300000006
 20
-15.0
 30
0.0
 11
93.37295300000006
 21
93.00000000000023
 31
0.0
  0
LINE
  5
6C18
330
A
100
AcDbEntity
  8
0
  6
Continuous
 62
     7
100
AcDbLine
 10
93.37295300000006
 20
93.00000000000023
 30
0.0
 11
93.87295300000017
 21
93.00000000000023
 31
0.0
  0
LINE
  5
6C19
330
A
100
AcDbEntity
  8
0
  6
Continuous
 62
     7
100
AcDbLine
 10
114.3729529999999
 20
-15.0
 30
0.0
 11
93.87295300000017
 21
-15.0
 31
0.0
  0
LINE
  5
6C1A
330
A
100
AcDbEntity
  8
0
  6
Continuous
 62
     7
100
AcDbLine
 10
114.3729529999999
 20
-15.0
 30
0.0
 11
114.3729529999999
 21
-14.94999999999993
 31
0.0
  0
CIRCLE
  5
6C1B
330
A
100
AcDbEntity
  8
0
  6
Continuous
 62
     7
100
AcDbCircle
 10
100.8729530000001
 20
79.00000000000023
 30
0.0
 40
5.2
  0
CIRCLE
  5
6C1C
330
A
100
AcDbEntity
  8
0
  6
Continuous
 62
     7
100
AcDbCircle
 10
100.8729530000001
 20
-0.9999999999997726
 30
0.0
 40
5.2
  0
CIRCLE
  5
6C1D
330
A
100
AcDbEntity
  8
0
  6
Continuous
 62
     7
100
AcDbCircle
 10
107.3729530000001
 20
39.00000000000023
 30
0.0
 40
5.2
  0
LINE
  5
6C1E
330
A
100
AcDbEntity
  8
0
  6
Continuous
 62
     7
100
AcDbLine
 10
113.8729530000001
 20
93.00000000000023
 30
0.0
 11
93.87295300000017
 21
93.00000000000023
 31
0.0
  0
LINE
  5
6C1F
330
A
100
AcDbEntity
  8
0
  6
Continuous
 62
     7
100
AcDbLine
 10
135.3729529999999
 20
93.00000000000023
 30
0.0
 11
121.8729530000001
 21
93.00000000000023
 31
0.0
  0
LINE
  5
6C20
330
A
100
AcDbEntity
  8
0
  6
Continuous
 62
     9
100
AcDbLine
 10
144.8729530000001
 20
69.00000000000023
 30
0.0
 11
144.8729530000001
 21
93.00000000000023
 31
0.0
  0
LINE
  5
6C21
330
A
100
AcDbEntity
  8
0
  6
Continuous
 62
     7
100
AcDbLine
 10
144.8729530000001
 20
93.00000000000023
 30
0.0
 11
143.372953
 21
93.00000000000023
 31
0.0
  0
LINE
  5
6C22
330
A
100
AcDbEntity
  8
0
  6
Continuous
 62
     9
100
AcDbLine
 10
144.8729530000001
 20
-15.0
 30
0.0
 11
144.8729530000001
 21
9.000000000000227
 31
0.0
  0
LINE
  5
6C23
330
A
100
AcDbEntity
  8
0
  6
Continuous
 62
     7
100
AcDbLine
 10
145.3729530000001
 20
93.00000000000023
 30
0.0
 11
145.3729530000001
 21
-15.0
 31
0.0
  0
LINE
  5
6C24
330
A
100
AcDbEntity
  8
0
  6
Continuous
 62
     7
100
AcDbLine
 10
145.3729530000001
 20
-15.0
 30
0.0
 11
144.8729530000001
 21
-15.0
 31
0.0
  0
LINE
  5
6C25
330
A
100
AcDbEntity
  8
0
  6
Continuous
 62
     7
100
AcDbLine
 10
144.8729530000001
 20
93.00000000000023
 30
0.0
 11
145.3729530000001
 21
93.00000000000023
 31
0.0
  0
LINE
  5
6C26
330
A
100
AcDbEntity
  8
0
  6
Continuous
 62
     7
100
AcDbLine
 10
114.3729529999999
 20
-15.0
 30
0.0
 11
143.372953
 21
-15.0
 31
0.0
  0
LINE
  5
6C27
330
A
100
AcDbEntity
  8
0
  6
Continuous
 62
     7
100
AcDbLine
 10
143.372953
 20
-15.0
 30
0.0
 11
143.372953
 21
-14.94999999999993
 31
0.0
  0
LINE
  5
6C28
330
A
100
AcDbEntity
  8
0
  6
Continuous
 62
     7
100
AcDbLine
 10
144.8729530000001
 20
-15.0
 30
0.0
 11
143.372953
 21
-15.0
 31
0.0
  0
CIRCLE
  5
6C29
330
A
100
AcDbEntity
  8
0
  6
Continuous
 62
     7
100
AcDbCircle
 10
100.8729530000001
 20
79.00000000000023
 30
0.0
 40
2.649999999999999
  0
CIRCLE
  5
6C2A
330
A
100
AcDbEntity
  8
0
  6
Continuous
 62
     7
100
AcDbCircle
 10
107.3729530000001
 20
39.00000000000023
 30
0.0
 40
2.649999999999999
  0
CIRCLE
  5
6C2B
330
A
100
AcDbEntity
  8
0
  6
Continuous
 62
     7
100
AcDbCircle
 10
100.8729530000001
 20
-0.9999999999997726
 30
0.0
 40
2.649999999999999
  0
LINE
  5
6C2C
330
A
100
AcDbEntity
  8
0
  6
Continuous
 62
     9
100
AcDbLine
 10
121.8729530000001
 20
86.04999999999995
 30
0.0
 11
122.8729530000001
 21
86.04999999999995
 31
0.0
  0
LINE
  5
6C2D
330
A
100
AcDbEntity
  8
0
  6
Continuous
 62
     9
100
AcDbLine
 10
122.8729530000001
 20
86.04999999999995
 30
0.0
 11
123.8729530000001
 21
86.04999999999995
 31
0.0
  0
LINE
  5
6C2E
330
A
100
AcDbEntity
  8
0
  6
Continuous
 62
     7
100
AcDbLine
 10
121.8729530000001
 20
91.55000000000018
 30
0.0
 11
122.8729530000001
 21
91.55000000000018
 31
0.0
  0
LINE
  5
6C2F
330
A
100
AcDbEntity
  8
0
  6
Continuous
 62
     7
100
AcDbLine
 10
122.8729530000001
 20
91.55000000000018
 30
0.0
 11
123.8729530000001
 21
91.55000000000018
 31
0.0
  0
LINE
  5
6C30
330
A
100
AcDbEntity
  8
0
  6
Continuous
 62
     7
100
AcDbLine
 10
123.8729530000001
 20
86.04999999999995
 30
0.0
 11
123.8729530000001
 21
91.55000000000018
 31
0.0
  0
LINE
  5
6C31
330
A
100
AcDbEntity
  8
0
  6
Continuous
 62
     9
100
AcDbLine
 10
121.8729530000001
 20
-7.949999999999931
 30
0.0
 11
122.8729530000001
 21
-7.949999999999931
 31
0.0
  0
LINE
  5
6C32
330
A
100
AcDbEntity
  8
0
  6
Continuous
 62
     9
100
AcDbLine
 10
122.8729530000001
 20
-7.949999999999931
 30
0.0
 11
123.8729530000001
 21
-7.949999999999931
 31
0.0
  0
LINE
  5
6C33
330
A
100
AcDbEntity
  8
0
  6
Continuous
 62
     7
100
AcDbLine
 10
123.8729530000001
 20
-7.949999999999931
 30
0.0
 11
123.8729530000001
 21
86.04999999999995
 31
0.0
  0
LINE
  5
6C34
330
A
100
AcDbEntity
  8
0
  6
Continuous
 62
     7
100
AcDbLine
 10
121.8729530000001
 20
-13.44999999999982
 30
0.0
 11
122.8729530000001
 21
-13.44999999999982
 31
0.0
  0
LINE
  5
6C35
330
A
100
AcDbEntity
  8
0
  6
Continuous
 62
     7
100
AcDbLine
 10
122.8729530000001
 20
-13.44999999999982
 30
0.0
 11
123.8729530000001
 21
-13.44999999999982
 31
0.0
  0
LINE
  5
6C36
330
A
100
AcDbEntity
  8
0
  6
Continuous
 62
     7
100
AcDbLine
 10
123.8729530000001
 20
-13.44999999999982
 30
0.0
 11
123.8729530000001
 21
-7.949999999999931
 31
0.0
  0
LINE
  5
6C37
330
A
100
AcDbEntity
  8
0
  6
Continuous
 62
     7
100
AcDbLine
 10
135.3729529999999
 20
91.55000000000018
 30
0.0
 11
134.8729530000001
 21
91.55000000000018
 31
0.0
  0
LINE
  5
6C38
330
A
100
AcDbEntity
  8
0
  6
Continuous
 62
     7
100
AcDbLine
 10
134.8729530000001
 20
91.55000000000018
 30
0.0
 11
133.8729530000001
 21
91.55000000000018
 31
0.0
  0
LINE
  5
6C39
330
A
100
AcDbEntity
  8
0
  6
Continuous
 62
     9
100
AcDbLine
 10
135.3729529999999
 20
86.04999999999995
 30
0.0
 11
134.8729530000001
 21
86.04999999999995
 31
0.0
  0
LINE
  5
6C3A
330
A
100
AcDbEntity
  8
0
  6
Continuous
 62
     9
100
AcDbLine
 10
134.8729530000001
 20
86.04999999999995
 30
0.0
 11
133.8729530000001
 21
86.04999999999995
 31
0.0
  0
LINE
  5
6C3B
330
A
100
AcDbEntity
  8
0
  6
Continuous
 62
     7
100
AcDbLine
 10
133.8729530000001
 20
91.55000000000018
 30
0.0
 11
133.8729530000001
 21
86.04999999999995
 31
0.0
  0
LINE
  5
6C3C
330
A
100
AcDbEntity
  8
0
  6
Continuous
 62
     9
100
AcDbLine
 10
135.3729529999999
 20
-7.949999999999931
 30
0.0
 11
134.8729530000001
 21
-7.949999999999931
 31
0.0
  0
LINE
  5
6C3D
330
A
100
AcDbEntity
  8
0
  6
Continuous
 62
     9
100
AcDbLine
 10
134.8729530000001
 20
-7.949999999999931
 30
0.0
 11
133.8729530000001
 21
-7.949999999999931
 31
0.0
  0
LINE
  5
6C3E
330
A
100
AcDbEntity
  8
0
  6
Continuous
 62
     7
100
AcDbLine
 10
133.8729530000001
 20
86.04999999999995
 30
0.0
 11
133.8729530000001
 21
-7.949999999999931
 31
0.0
  0
LINE
  5
6C3F
330
A
100
AcDbEntity
  8
0
  6
Continuous
 62
     7
100
AcDbLine
 10
135.3729529999999
 20
-13.44999999999982
 30
0.0
 11
134.8729530000001
 21
-13.44999999999982
 31
0.0
  0
LINE
  5
6C40
330
A
100
AcDbEntity
  8
0
  6
Continuous
 62
     7
100
AcDbLine
 10
134.8729530000001
 20
-13.44999999999982
 30
0.0
 11
133.8729530000001
 21
-13.44999999999982
 31
0.0
  0
LINE
  5
6C41
330
A
100
AcDbEntity
  8
0
  6
Continuous
 62
     7
100
AcDbLine
 10
133.8729530000001
 20
-7.949999999999931
 30
0.0
 11
133.8729530000001
 21
-13.44999999999982
 31
0.0
  0
LINE
  5
6C42
330
A
100
AcDbEntity
  8
0
  6
Continuous
 62
     7
100
AcDbLine
 10
124.3729530000001
 20
88.05000000000006
 30
0.0
 11
124.3729530000001
 21
78.55000000000018
 31
0.0
  0
LINE
  5
6C43
330
A
100
AcDbEntity
  8
0
  6
Continuous
 62
     9
100
AcDbLine
 10
133.8729530000001
 20
78.55000000000018
 30
0.0
 11
124.3729530000001
 21
78.55000000000018
 31
0.0
  0
LINE
  5
6C44
330
A
100
AcDbEntity
  8
0
  6
Continuous
 62
     9
100
AcDbLine
 10
133.8729530000001
 20
-0.4499999999998181
 30
0.0
 11
124.3729530000001
 21
-0.4499999999998181
 31
0.0
  0
LINE
  5
6C45
330
A
100
AcDbEntity
  8
0
  6
Continuous
 62
     7
100
AcDbLine
 10
124.3729530000001
 20
78.55000000000018
 30
0.0
 11
124.3729530000001
 21
-0.4499999999998181
 31
0.0
  0
LINE
  5
6C46
330
A
100
AcDbEntity
  8
0
  6
Continuous
 62
     7
100
AcDbLine
 10
124.3729530000001
 20
-0.4499999999998181
 30
0.0
 11
124.3729530000001
 21
-9.949999999999931
 31
0.0
  0
LINE
  5
6C47
330
A
100
AcDbEntity
  8
0
  6
Continuous
 62
     9
100
AcDbLine
 10
118.4529239999999
 20
-14.94999999999993
 30
0.0
 11
118.4529239999999
 21
93.04999999999996
 31
0.0
  0
LINE
  5
6C48
330
A
100
AcDbEntity
  8
0
  6
Continuous
 62
     7
100
AcDbLine
 10
120.1029530000002
 20
93.04999999999996
 30
0.0
 11
120.1029530000002
 21
-14.94999999999993
 31
0.0
  0
LINE
  5
6C49
330
A
100
AcDbEntity
  8
0
  6
Continuous
 62
     7
100
AcDbLine
 10
120.1029530000002
 20
-14.94999999999993
 30
0.0
 11
118.4529239999999
 21
-14.94999999999993
 31
0.0
  0
LINE
  5
6C4A
330
A
100
AcDbEntity
  8
0
  6
Continuous
 62
     7
100
AcDbLine
 10
118.4529239999999
 20
93.04999999999996
 30
0.0
 11
120.1029530000002
 21
93.04999999999996
 31
0.0
  0
LINE
  5
6C4B
330
A
100
AcDbEntity
  8
0
  6
Continuous
 62
     7
100
AcDbLine
 10
121.8729530000001
 20
-14.94999999999993
 30
0.0
 11
121.8729530000001
 21
93.04999999999996
 31
0.0
  0
LINE
  5
6C4C
330
A
100
AcDbEntity
  8
0
  6
Continuous
 62
     7
100
AcDbLine
 10
121.8729530000001
 20
-14.94999999999993
 30
0.0
 11
120.1029530000002
 21
-14.94999999999993
 31
0.0
  0
LINE
  5
6C4D
330
A
100
AcDbEntity
  8
0
  6
Continuous
 62
     7
100
AcDbLine
 10
121.8729530000001
 20
93.04999999999996
 30
0.0
 11
120.1029530000002
 21
93.04999999999996
 31
0.0
  0
LINE
  5
6C4E
330
A
100
AcDbEntity
  8
0
  6
Continuous
 62
     9
100
AcDbLine
 10
117.4148470000002
 20
-14.94999999999993
 30
0.0
 11
117.4148470000002
 21
93.04999999999996
 31
0.0
  0
LINE
  5
6C4F
330
A
100
AcDbEntity
  8
0
  6
Continuous
 62
     7
100
AcDbLine
 10
118.4529239999999
 20
-14.94999999999993
 30
0.0
 11
117.4148470000002
 21
-14.94999999999993
 31
0.0
  0
LINE
  5
6C50
330
A
100
AcDbEntity
  8
0
  6
Continuous
 62
     7
100
AcDbLine
 10
117.4148470000002
 20
93.04999999999996
 30
0.0
 11
118.4529239999999
 21
93.04999999999996
 31
0.0
  0
LINE
  5
6C51
330
A
100
AcDbEntity
  8
0
  6
Continuous
 62
     9
100
AcDbLine
 10
114.32948
 20
-14.94999999999993
 30
0.0
 11
114.32948
 21
93.04999999999996
 31
0.0
  0
LINE
  5
6C52
330
A
100
AcDbEntity
  8
0
  6
Continuous
 62
     7
100
AcDbLine
 10
117.4148470000002
 20
-14.94999999999993
 30
0.0
 11
114.32948
 21
-14.94999999999993
 31
0.0
  0
LINE
  5
6C53
330
A
100
AcDbEntity
  8
0
  6
Continuous
 62
     7
100
AcDbLine
 10
114.32948
 20
93.04999999999996
 30
0.0
 11
117.4148470000002
 21
93.04999999999996
 31
0.0
  0
LINE
  5
6C54
330
A
100
AcDbEntity
  8
0
  6
Continuous
 62
     7
100
AcDbLine
 10
113.8729530000001
 20
-14.94999999999993
 30
0.0
 11
113.8729530000001
 21
93.04999999999996
 31
0.0
  0
LINE
  5
6C55
330
A
100
AcDbEntity
  8
0
  6
Continuous
 62
     7
100
AcDbLine
 10
114.32948
 20
-14.94999999999993
 30
0.0
 11
113.8729530000001
 21
-14.94999999999993
 31
0.0
  0
LINE
  5
6C56
330
A
100
AcDbEntity
  8
0
  6
Continuous
 62
     7
100
AcDbLine
 10
113.8729530000001
 20
93.04999999999996
 30
0.0
 11
114.32948
 21
93.04999999999996
 31
0.0
  0
LINE
  5
6C57
330
A
100
AcDbEntity
  8
0
  6
Continuous
 62
     7
100
AcDbLine
 10
137.1429530000001
 20
-14.94999999999993
 30
0.0
 11
135.3729529999999
 21
-14.94999999999993
 31
0.0
  0
LINE
  5
6C58
330
A
100
AcDbEntity
  8
0
  6
Continuous
 62
     7
100
AcDbLine
 10
135.3729529999999
 20
-14.94999999999993
 30
0.0
 11
135.3729529999999
 21
93.04999999999996
 31
0.0
  0
LINE
  5
6C59
330
A
100
AcDbEntity
  8
0
  6
Continuous
 62
     7
100
AcDbLine
 10
137.1429530000001
 20
93.04999999999996
 30
0.0
 11
135.3729529999999
 21
93.04999999999996
 31
0.0
  0
LINE
  5
6C5A
330
A
100
AcDbEntity
  8
0
  6
Continuous
 62
     7
100
AcDbLine
 10
137.1429530000001
 20
93.04999999999996
 30
0.0
 11
137.1429530000001
 21
-14.94999999999993
 31
0.0
  0
LINE
  5
6C5B
330
A
100
AcDbEntity
  8
0
  6
Continuous
 62
     9
100
AcDbLine
 10
138.7929820000001
 20
93.04999999999996
 30
0.0
 11
138.7929820000001
 21
-14.94999999999993
 31
0.0
  0
LINE
  5
6C5C
330
A
100
AcDbEntity
  8
0
  6
Continuous
 62
     7
100
AcDbLine
 10
138.7929820000001
 20
-14.94999999999993
 30
0.0
 11
137.1429530000001
 21
-14.94999999999993
 31
0.0
  0
LINE
  5
6C5D
330
A
100
AcDbEntity
  8
0
  6
Continuous
 62
     7
100
AcDbLine
 10
137.1429530000001
 20
93.04999999999996
 30
0.0
 11
138.7929820000001
 21
93.04999999999996
 31
0.0
  0
LINE
  5
6C5E
330
A
100
AcDbEntity
  8
0
  6
Continuous
 62
     9
100
AcDbLine
 10
139.831059
 20
93.04999999999996
 30
0.0
 11
139.831059
 21
-14.94999999999993
 31
0.0
  0
LINE
  5
6C5F
330
A
100
AcDbEntity
  8
0
  6
Continuous
 62
     7
100
AcDbLine
 10
139.831059
 20
-14.94999999999993
 30
0.0
 11
138.7929820000001
 21
-14.94999999999993
 31
0.0
  0
LINE
  5
6C60
330
A
100
AcDbEntity
  8
0
  6
Continuous
 62
     7
100
AcDbLine
 10
138.7929820000001
 20
93.04999999999996
 30
0.0
 11
139.831059
 21
93.04999999999996
 31
0.0
  0
LINE
  5
6C61
330
A
100
AcDbEntity
  8
0
  6
Continuous
 62
     9
100
AcDbLine
 10
142.9164260000003
 20
93.04999999999996
 30
0.0
 11
142.9164260000003
 21
-14.94999999999993
 31
0.0
  0
LINE
  5
6C62
330
A
100
AcDbEntity
  8
0
  6
Continuous
 62
     7
100
AcDbLine
 10
142.9164260000003
 20
-14.94999999999993
 30
0.0
 11
139.831059
 21
-14.94999999999993
 31
0.0
  0
LINE
  5
6C63
330
A
100
AcDbEntity
  8
0
  6
Continuous
 62
     7
100
AcDbLine
 10
139.831059
 20
93.04999999999996
 30
0.0
 11
142.9164260000003
 21
93.04999999999996
 31
0.0
  0
LINE
  5
6C64
330
A
100
AcDbEntity
  8
0
  6
Continuous
 62
     7
100
AcDbLine
 10
143.372953
 20
-14.94999999999993
 30
0.0
 11
143.372953
 21
93.04999999999996
 31
0.0
  0
LINE
  5
6C65
330
A
100
AcDbEntity
  8
0
  6
Continuous
 62
     7
100
AcDbLine
 10
143.372953
 20
-14.94999999999993
 30
0.0
 11
142.9164260000003
 21
-14.94999999999993
 31
0.0
  0
LINE
  5
6C66
330
A
100
AcDbEntity
  8
0
  6
Continuous
 62
     7
100
AcDbLine
 10
142.9164260000003
 20
93.04999999999996
 30
0.0
 11
143.372953
 21
93.04999999999996
 31
0.0
  0
LINE
  5
6C67
330
A
100
AcDbEntity
  8
0
  6
Continuous
 62
     9
100
AcDbLine
 10
124.3729530000001
 20
78.55000000000018
 30
0.0
 11
123.8729530000001
 21
78.55000000000018
 31
0.0
  0
LINE
  5
6C68
330
A
100
AcDbEntity
  8
0
  6
Continuous
 62
     7
100
AcDbLine
 10
123.8729530000001
 20
86.04999999999995
 30
0.0
 11
124.3729530000001
 21
86.04999999999995
 31
0.0
  0
LINE
  5
6C69
330
A
100
AcDbEntity
  8
0
  6
Continuous
 62
     9
100
AcDbLine
 10
124.3729530000001
 20
-0.4499999999998181
 30
0.0
 11
123.8729530000001
 21
-0.4499999999998181
 31
0.0
  0
LINE
  5
6C6A
330
A
100
AcDbEntity
  8
0
  6
Continuous
 62
     7
100
AcDbLine
 10
124.3729530000001
 20
-7.949999999999931
 30
0.0
 11
123.8729530000001
 21
-7.949999999999931
 31
0.0
  0
LINE
  5
6C6B
330
A
100
AcDbEntity
  8
0
  6
Continuous
 62
     7
100
AcDbLine
 10
133.8729530000001
 20
88.05000000000006
 30
0.0
 11
124.3729530000001
 21
88.05000000000006
 31
0.0
  0
LINE
  5
6C6C
330
A
100
AcDbEntity
  8
0
  6
Continuous
 62
     7
100
AcDbLine
 10
124.3729530000001
 20
-9.949999999999931
 30
0.0
 11
133.8729530000001
 21
-9.949999999999931
 31
0.0
  0
LINE
  5
6C6D
330
A
100
AcDbEntity
  8
0
  6
Continuous
 62
     7
100
AcDbLine
 10
133.8729530000001
 20
88.05000000000006
 30
0.0
 11
124.3729530000001
 21
88.05000000000006
 31
0.0
  0
LINE
  5
6C6E
330
A
100
AcDbEntity
  8
0
  6
Continuous
 62
     7
100
AcDbLine
 10
124.3729530000001
 20
-9.949999999999931
 30
0.0
 11
133.8729530000001
 21
-9.949999999999931
 31
0.0
  0
CIRCLE
  5
6C6F
330
A
100
AcDbEntity
  8
0
  6
Continuous
 62
     7
100
AcDbCircle
 10
-63.62704699999984
 20
39.00000000000023
 30
0.0
 40
2.649999999999999
  0
CIRCLE
  5
6C70
330
A
100
AcDbEntity
  8
0
  6
Continuous
 62
     7
100
AcDbCircle
 10
-57.12704699999983
 20
-0.9999999999997726
 30
0.0
 40
2.649999999999999
  0
CIRCLE
  5
6C71
330
A
100
AcDbEntity
  8
0
  6
Continuous
 62
     7
100
AcDbCircle
 10
-57.12704699999983
 20
79.00000000000023
 30
0.0
 40
2.649999999999999
  0
LINE
  5
6C72
330
A
100
AcDbEntity
  8
0
  6
Continuous
 62
     7
100
AcDbLine
 10
-49.62704699999983
 20
93.00000000000023
 30
0.0
 11
-101.6270469999998
 21
93.00000000000023
 31
0.0
  0
LINE
  5
6C73
330
A
100
AcDbEntity
  8
0
  6
Continuous
 62
     7
100
AcDbLine
 10
-49.62704699999983
 20
93.00000000000023
 30
0.0
 11
-49.62704699999983
 21
-15.0
 31
0.0
  0
CIRCLE
  5
6C74
330
A
100
AcDbEntity
  8
0
  6
Continuous
 62
     7
100
AcDbCircle
 10
-77.12704699999983
 20
58.00000000000022
 30
0.0
 40
1.399999999999999
  0
ARC
  5
6C75
330
A
100
AcDbEntity
  8
0
  6
Continuous
 62
     7
100
AcDbCircle
 10
-83.12704699999983
 20
57.00000000000023
 30
0.0
 40
1.5
100
AcDbArc
 50
0.0
 51
90.0
  0
LINE
  5
6C76
330
A
100
AcDbEntity
  8
0
  6
Continuous
 62
     7
100
AcDbLine
 10
-83.12704699999983
 20
58.50000000000022
 30
0.0
 11
-87.12704699999983
 21
58.50000000000022
 31
0.0
  0
ARC
  5
6C77
330
A
100
AcDbEntity
  8
0
  6
Continuous
 62
     7
100
AcDbCircle
 10
-87.12704699999983
 20
57.00000000000023
 30
0.0
 40
1.5
100
AcDbArc
 50
90.0
 51
180.0
  0
ARC
  5
6C78
330
A
100
AcDbEntity
  8
0
  6
Continuous
 62
     7
100
AcDbCircle
 10
-87.12704699999983
 20
57.00000000000023
 30
0.0
 40
1.5
100
AcDbArc
 50
180.0
 51
270.0
  0
LINE
  5
6C79
330
A
100
AcDbEntity
  8
0
  6
Continuous
 62
     7
100
AcDbLine
 10
-87.12704699999983
 20
55.50000000000022
 30
0.0
 11
-83.12704699999983
 21
55.50000000000022
 31
0.0
  0
ARC
  5
6C7A
330
A
100
AcDbEntity
  8
0
  6
Continuous
 62
     7
100
AcDbCircle
 10
-83.12704699999983
 20
57.00000000000023
 30
0.0
 40
1.5
100
AcDbArc
 50
270.0
 51
0.0
  0
CIRCLE
  5
6C7B
330
A
100
AcDbEntity
  8
0
  6
Continuous
 62
     7
100
AcDbCircle
 10
-85.12704699999984
 20
39.00000000000023
 30
0.0
 40
15.5
  0
LINE
  5
6C7C
330
A
100
AcDbEntity
  8
0
  6
Continuous
 62
     7
100
AcDbLine
 10
-49.62704699999983
 20
-15.0
 30
0.0
 11
-101.6270469999998
 21
-15.0
 31
0.0
  0
LINE
  5
6C7D
330
A
100
AcDbEntity
  8
0
  6
Continuous
 62
     7
100
AcDbLine
 10
-101.6270469999998
 20
93.00000000000023
 30
0.0
 11
-101.6270469999998
 21
-15.0
 31
0.0
  0
LINE
  5
6C7E
330
A
100
AcDbEntity
  8
0
  6
Continuous
 62
     7
100
AcDbLine
 10
-78.12704699999983
 20
93.04999999999996
 30
0.0
 11
-77.12704699999983
 21
93.04999999999996
 31
0.0
  0
LINE
  5
6C7F
330
A
100
AcDbEntity
  8
0
  6
Continuous
 62
     9
100
AcDbLine
 10
-77.12704699999983
 20
93.00000000000023
 30
0.0
 11
-77.12704699999983
 21
93.04999999999996
 31
0.0
  0
LINE
  5
6C80
330
A
100
AcDbEntity
  8
0
  6
Continuous
 62
     7
100
AcDbLine
 10
-78.12704699999983
 20
93.04999999999996
 30
0.0
 11
-78.12704699999983
 21
93.00000000000023
 31
0.0
  0
LINE
  5
6C81
330
A
100
AcDbEntity
  8
0
  6
Continuous
 62
     7
100
AcDbLine
 10
-77.12704699999983
 20
93.04999999999996
 30
0.0
 11
-70.12704699999983
 21
93.04999999999996
 31
0.0
  0
LINE
  5
6C82
330
A
100
AcDbEntity
  8
0
  6
Continuous
 62
     7
100
AcDbLine
 10
-70.12704699999983
 20
93.04999999999996
 30
0.0
 11
-70.12704699999983
 21
93.00000000000023
 31
0.0
  0
LINE
  5
6C83
330
A
100
AcDbEntity
  8
0
  6
Continuous
 62
     7
100
AcDbLine
 10
-99.62704699999983
 20
93.04999999999996
 30
0.0
 11
-92.62704699999984
 21
93.04999999999996
 31
0.0
  0
LINE
  5
6C84
330
A
100
AcDbEntity
  8
0
  6
Continuous
 62
     9
100
AcDbLine
 10
-92.62704699999984
 20
93.04999999999996
 30
0.0
 11
-92.62704699999984
 21
93.00000000000023
 31
0.0
  0
LINE
  5
6C85
330
A
100
AcDbEntity
  8
0
  6
Continuous
 62
     7
100
AcDbLine
 10
-99.62704699999983
 20
93.00000000000023
 30
0.0
 11
-99.62704699999983
 21
93.04999999999996
 31
0.0
  0
LINE
  5
6C86
330
A
100
AcDbEntity
  8
0
  6
Continuous
 62
     7
100
AcDbLine
 10
-92.62704699999984
 20
93.04999999999996
 30
0.0
 11
-91.62704699999983
 21
93.04999999999996
 31
0.0
  0
LINE
  5
6C87
330
A
100
AcDbEntity
  8
0
  6
Continuous
 62
     7
100
AcDbLine
 10
-91.62704699999983
 20
93.04999999999996
 30
0.0
 11
-91.62704699999983
 21
93.00000000000023
 31
0.0
  0
CIRCLE
  5
6C88
330
A
100
AcDbEntity
  8
0
  6
Continuous
 62
     7
100
AcDbCircle
 10
-85.12704699999984
 20
39.00000000000023
 30
0.0
 40
14.7
  0
CIRCLE
  5
6C89
330
A
100
AcDbEntity
  8
0
  6
Continuous
 62
     7
100
AcDbCircle
 10
-85.12704699999984
 20
39.00000000000023
 30
0.0
 40
15.0
  0
CIRCLE
  5
6C8A
330
A
100
AcDbEntity
  8
0
  6
Continuous
 62
     7
100
AcDbCircle
 10
-85.12704699999984
 20
52.00000000000023
 30
0.0
 40
1.55
  0
CIRCLE
  5
6C8B
330
A
100
AcDbEntity
  8
0
  6
Continuous
 62
     7
100
AcDbCircle
 10
-85.12704699999984
 20
26.00000000000023
 30
0.0
 40
1.55
  0
CIRCLE
  5
6C8C
330
A
100
AcDbEntity
  8
0
  6
Continuous
 62
     7
100
AcDbCircle
 10
-72.12704699999983
 20
39.00000000000023
 30
0.0
 40
1.55
  0
CIRCLE
  5
6C8D
330
A
100
AcDbEntity
  8
0
  6
Continuous
 62
     7
100
AcDbCircle
 10
-98.12704699999983
 20
39.00000000000023
 30
0.0
 40
1.55
  0
LINE
  5
6C8E
330
A
100
AcDbEntity
  8
0
  6
Continuous
 62
     9
100
AcDbLine
 10
43.0
 20
-63.47499999999996
 30
0.0
 11
43.0
 21
-64.4749999999998
 31
0.0
  0
LINE
  5
6C8F
330
A
100
AcDbEntity
  8
0
  6
Continuous
 62
     7
100
AcDbLine
 10
48.5
 20
-63.47499999999996
 30
0.0
 11
48.5
 21
-64.4749999999998
 31
0.0
  0
LINE
  5
6C90
330
A
100
AcDbEntity
  8
0
  6
Continuous
 62
     7
100
AcDbLine
 10
43.0
 20
-64.4749999999998
 30
0.0
 11
48.5
 21
-64.4749999999998
 31
0.0
  0
LINE
  5
6C91
330
A
100
AcDbEntity
  8
0
  6
Continuous
 62
     9
100
AcDbLine
 10
-16.0
 20
-63.47499999999996
 30
0.0
 11
-16.0
 21
-64.4749999999998
 31
0.0
  0
LINE
  5
6C92
330
A
100
AcDbEntity
  8
0
  6
Continuous
 62
     7
100
AcDbLine
 10
-16.0
 20
-64.4749999999998
 30
0.0
 11
43.0
 21
-64.4749999999998
 31
0.0
  0
LINE
  5
6C93
330
A
100
AcDbEntity
  8
0
  6
Continuous
 62
     7
100
AcDbLine
 10
-21.5
 20
-63.47499999999996
 30
0.0
 11
-21.5
 21
-64.4749999999998
 31
0.0
  0
LINE
  5
6C94
330
A
100
AcDbEntity
  8
0
  6
Continuous
 62
     7
100
AcDbLine
 10
-21.5
 20
-64.4749999999998
 30
0.0
 11
-16.0
 21
-64.4749999999998
 31
0.0
  0
LINE
  5
6C95
330
A
100
AcDbEntity
  8
0
  6
Continuous
 62
     7
100
AcDbLine
 10
48.5
 20
-76.9749999999998
 30
0.0
 11
48.5
 21
-76.47499999999979
 31
0.0
  0
LINE
  5
6C96
330
A
100
AcDbEntity
  8
0
  6
Continuous
 62
     9
100
AcDbLine
 10
43.0
 20
-76.9749999999998
 30
0.0
 11
43.0
 21
-76.47499999999979
 31
0.0
  0
LINE
  5
6C97
330
A
100
AcDbEntity
  8
0
  6
Continuous
 62
     7
100
AcDbLine
 10
48.5
 20
-76.47499999999979
 30
0.0
 11
43.0
 21
-76.47499999999979
 31
0.0
  0
LINE
  5
6C98
330
A
100
AcDbEntity
  8
0
  6
Continuous
 62
     9
100
AcDbLine
 10
-16.0
 20
-76.9749999999998
 30
0.0
 11
-16.0
 21
-76.47499999999979
 31
0.0
  0
LINE
  5
6C99
330
A
100
AcDbEntity
  8
0
  6
Continuous
 62
     7
100
AcDbLine
 10
43.0
 20
-76.47499999999979
 30
0.0
 11
-16.0
 21
-76.47499999999979
 31
0.0
  0
LINE
  5
6C9A
330
A
100
AcDbEntity
  8
0
  6
Continuous
 62
     7
100
AcDbLine
 10
-21.5
 20
-76.9749999999998
 30
0.0
 11
-21.5
 21
-76.47499999999979
 31
0.0
  0
LINE
  5
6C9B
330
A
100
AcDbEntity
  8
0
  6
Continuous
 62
     7
100
AcDbLine
 10
-16.0
 20
-76.47499999999979
 30
0.0
 11
-21.5
 21
-76.47499999999979
 31
0.0
  0
LINE
  5
6C9C
330
A
100
AcDbEntity
  8
0
  6
Continuous
 62
     9
100
AcDbLine
 10
9.08332600000034
 20
-75.47499999999996
 30
0.0
 11
9.08332600000034
 21
-65.97499999999979
 31
0.0
  0
LINE
  5
6C9D
330
A
100
AcDbEntity
  8
0
  6
Continuous
 62
     7
100
AcDbLine
 10
-9.0
 20
-75.47499999999996
 30
0.0
 11
-9.0
 21
-65.97499999999979
 31
0.0
  0
LINE
  5
6C9E
330
A
100
AcDbEntity
  8
0
  6
Continuous
 62
     7
100
AcDbLine
 10
9.08332600000034
 20
-65.97499999999979
 30
0.0
 11
-9.0
 21
-65.97499999999979
 31
0.0
  0
LINE
  5
6C9F
330
A
100
AcDbEntity
  8
0
  6
Continuous
 62
     9
100
AcDbLine
 10
13.149111
 20
-75.47499999999996
 30
0.0
 11
13.149111
 21
-65.97499999999979
 31
0.0
  0
LINE
  5
6CA0
330
A
100
AcDbEntity
  8
0
  6
Continuous
 62
     7
100
AcDbLine
 10
9.08332600000034
 20
-65.97499999999979
 30
0.0
 11
13.149111
 21
-65.97499999999979
 31
0.0
  0
LINE
  5
6CA1
330
A
100
AcDbEntity
  8
0
  6
Continuous
 62
     7
100
AcDbLine
 10
43.0
 20
-75.47499999999996
 30
0.0
 11
43.0
 21
-65.97499999999979
 31
0.0
  0
LINE
  5
6CA2
330
A
100
AcDbEntity
  8
0
  6
Continuous
 62
     7
100
AcDbLine
 10
43.0
 20
-65.97499999999979
 30
0.0
 11
13.149111
 21
-65.97499999999979
 31
0.0
  0
ARC
  5
6CA3
330
A
100
AcDbEntity
  8
0
  6
Continuous
 62
     7
100
AcDbCircle
 10
51.80000000000001
 20
-35.4749999999998
 30
0.0
 40
0.5
100
AcDbArc
 50
90.0
 51
180.0
  0
LINE
  5
6CA4
330
A
100
AcDbEntity
  8
0
  6
Continuous
 62
     7
100
AcDbLine
 10
51.80000000000001
 20
-34.9749999999998
 30
0.0
 11
56.5
 21
-34.9749999999998
 31
0.0
  0
ARC
  5
6CA5
330
A
100
AcDbEntity
  8
0
  6
Continuous
 62
     7
100
AcDbCircle
 10
51.80000000000001
 20
-86.47499999999979
 30
0.0
 40
0.5
100
AcDbArc
 50
180.0
 51
270.0
  0
LINE
  5
6CA6
330
A
100
AcDbEntity
  8
0
  6
Continuous
 62
     7
100
AcDbLine
 10
51.30000000000001
 20
-86.47499999999979
 30
0.0
 11
51.30000000000001
 21
-84.97499999999979
 31
0.0
  0
ARC
  5
6CA7
330
A
100
AcDbEntity
  8
0
  6
Continuous
 62
     7
100
AcDbCircle
 10
-18.203597
 20
-70.47499999999996
 30
0.0
 40
71.0
100
AcDbArc
 50
348.2158439999981
 51
11.7841560000019
  0
LINE
  5
6CA8
330
A
100
AcDbEntity
  8
0
  6
Continuous
 62
     7
100
AcDbLine
 10
51.30000000000001
 20
-55.97499999999979
 30
0.0
 11
51.30000000000001
 21
-35.4749999999998
 31
0.0
  0
LINE
  5
6CA9
330
A
100
AcDbEntity
  8
0
  6
Continuous
 62
     7
100
AcDbLine
 10
56.5
 20
-34.9749999999998
 30
0.0
 11
56.5
 21
-86.9749999999998
 31
0.0
  0
LINE
  5
6CAA
330
A
100
AcDbEntity
  8
0
  6
Continuous
 62
     7
100
AcDbLine
 10
51.80000000000001
 20
-86.9749999999998
 30
0.0
 11
56.5
 21
-86.9749999999998
 31
0.0
  0
ARC
  5
6CAB
330
A
100
AcDbEntity
  8
0
  6
Continuous
 62
     7
100
AcDbCircle
 10
49.80000000000001
 20
-86.47499999999979
 30
0.0
 40
1.5
100
AcDbArc
 50
0.0
 51
90.0
  0
LINE
  5
6CAC
330
A
100
AcDbEntity
  8
0
  6
Continuous
 62
     7
100
AcDbLine
 10
49.80000000000001
 20
-84.97499999999979
 30
0.0
 11
43.0
 21
-84.97499999999979
 31
0.0
  0
LINE
  5
6CAD
330
A
100
AcDbEntity
  8
0
  6
Continuous
 62
     7
100
AcDbLine
 10
45.59807700000021
 20
-55.97499999999979
 30
0.0
 11
49.80000000000001
 21
-55.97499999999979
 31
0.0
  0
ARC
  5
6CAE
330
A
100
AcDbEntity
  8
0
  6
Continuous
 62
     7
100
AcDbCircle
 10
49.80000000000001
 20
-54.4749999999999
 30
0.0
 40
1.5
100
AcDbArc
 50
270.0
 51
0.0
  0
ARC
  5
6CAF
330
A
100
AcDbEntity
  8
0
  6
Continuous
 62
     7
100
AcDbCircle
 10
47.75000000000011
 20
-62.47500000000008
 30
0.0
 40
4.5
100
AcDbArc
 50
300.0000000000005
 51
81.67795900000124
  0
ARC
  5
6CB0
330
A
100
AcDbEntity
  8
0
  6
Continuous
 62
     7
100
AcDbCircle
 10
47.75000000000011
 20
-62.47500000000008
 30
0.0
 40
4.0
100
AcDbArc
 50
304.2288660000003
 51
74.05758799999855
  0
LINE
  5
6CB1
330
A
100
AcDbEntity
  8
0
  6
Continuous
 62
     9
100
AcDbLine
 10
43.0
 20
-63.47499999999996
 30
0.0
 11
43.0
 21
-64.4749999999998
 31
0.0
  0
LINE
  5
6CB2
330
A
100
AcDbEntity
  8
0
  6
Continuous
 62
     9
100
AcDbLine
 10
43.0
 20
-64.4749999999998
 30
0.0
 11
43.0
 21
-65.47499999999979
 31
0.0
  0
LINE
  5
6CB3
330
A
100
AcDbEntity
  8
0
  6
Continuous
 62
     7
100
AcDbLine
 10
48.5
 20
-63.47499999999996
 30
0.0
 11
48.5
 21
-64.4749999999998
 31
0.0
  0
LINE
  5
6CB4
330
A
100
AcDbEntity
  8
0
  6
Continuous
 62
     7
100
AcDbLine
 10
48.5
 20
-64.4749999999998
 30
0.0
 11
48.5
 21
-65.47499999999979
 31
0.0
  0
LINE
  5
6CB5
330
A
100
AcDbEntity
  8
0
  6
Continuous
 62
     7
100
AcDbLine
 10
43.0
 20
-65.47499999999979
 30
0.0
 11
48.5
 21
-65.47499999999979
 31
0.0
  0
LINE
  5
6CB6
330
A
100
AcDbEntity
  8
0
  6
Continuous
 62
     9
100
AcDbLine
 10
-16.0
 20
-63.47499999999996
 30
0.0
 11
-16.0
 21
-64.4749999999998
 31
0.0
  0
LINE
  5
6CB7
330
A
100
AcDbEntity
  8
0
  6
Continuous
 62
     9
100
AcDbLine
 10
-16.0
 20
-64.4749999999998
 30
0.0
 11
-16.0
 21
-65.47499999999979
 31
0.0
  0
LINE
  5
6CB8
330
A
100
AcDbEntity
  8
0
  6
Continuous
 62
     7
100
AcDbLine
 10
-16.0
 20
-65.47499999999979
 30
0.0
 11
43.0
 21
-65.47499999999979
 31
0.0
  0
LINE
  5
6CB9
330
A
100
AcDbEntity
  8
0
  6
Continuous
 62
     7
100
AcDbLine
 10
-21.5
 20
-63.47499999999996
 30
0.0
 11
-21.5
 21
-64.4749999999998
 31
0.0
  0
LINE
  5
6CBA
330
A
100
AcDbEntity
  8
0
  6
Continuous
 62
     7
100
AcDbLine
 10
-21.5
 20
-64.4749999999998
 30
0.0
 11
-21.5
 21
-65.47499999999979
 31
0.0
  0
LINE
  5
6CBB
330
A
100
AcDbEntity
  8
0
  6
Continuous
 62
     7
100
AcDbLine
 10
-21.5
 20
-65.47499999999979
 30
0.0
 11
-16.0
 21
-65.47499999999979
 31
0.0
  0
LINE
  5
6CBC
330
A
100
AcDbEntity
  8
0
  6
Continuous
 62
     7
100
AcDbLine
 10
48.5
 20
-76.9749999999998
 30
0.0
 11
48.5
 21
-76.47499999999979
 31
0.0
  0
LINE
  5
6CBD
330
A
100
AcDbEntity
  8
0
  6
Continuous
 62
     7
100
AcDbLine
 10
48.5
 20
-76.47499999999979
 30
0.0
 11
48.5
 21
-75.47499999999996
 31
0.0
  0
LINE
  5
6CBE
330
A
100
AcDbEntity
  8
0
  6
Continuous
 62
     9
100
AcDbLine
 10
43.0
 20
-76.9749999999998
 30
0.0
 11
43.0
 21
-76.47499999999979
 31
0.0
  0
LINE
  5
6CBF
330
A
100
AcDbEntity
  8
0
  6
Continuous
 62
     9
100
AcDbLine
 10
43.0
 20
-76.47499999999979
 30
0.0
 11
43.0
 21
-75.47499999999996
 31
0.0
  0
LINE
  5
6CC0
330
A
100
AcDbEntity
  8
0
  6
Continuous
 62
     7
100
AcDbLine
 10
48.5
 20
-75.47499999999996
 30
0.0
 11
43.0
 21
-75.47499999999996
 31
0.0
  0
LINE
  5
6CC1
330
A
100
AcDbEntity
  8
0
  6
Continuous
 62
     9
100
AcDbLine
 10
-16.0
 20
-76.9749999999998
 30
0.0
 11
-16.0
 21
-76.47499999999979
 31
0.0
  0
LINE
  5
6CC2
330
A
100
AcDbEntity
  8
0
  6
Continuous
 62
     9
100
AcDbLine
 10
-16.0
 20
-76.47499999999979
 30
0.0
 11
-16.0
 21
-75.47499999999996
 31
0.0
  0
LINE
  5
6CC3
330
A
100
AcDbEntity
  8
0
  6
Continuous
 62
     7
100
AcDbLine
 10
43.0
 20
-75.47499999999996
 30
0.0
 11
-16.0
 21
-75.47499999999996
 31
0.0
  0
LINE
  5
6CC4
330
A
100
AcDbEntity
  8
0
  6
Continuous
 62
     7
100
AcDbLine
 10
-21.5
 20
-76.9749999999998
 30
0.0
 11
-21.5
 21
-76.47499999999979
 31
0.0
  0
LINE
  5
6CC5
330
A
100
AcDbEntity
  8
0
  6
Continuous
 62
     7
100
AcDbLine
 10
-21.5
 20
-76.47499999999979
 30
0.0
 11
-21.5
 21
-75.47499999999996
 31
0.0
  0
LINE
  5
6CC6
330
A
100
AcDbEntity
  8
0
  6
Continuous
 62
     7
100
AcDbLine
 10
-16.0
 20
-75.47499999999996
 30
0.0
 11
-21.5
 21
-75.47499999999996
 31
0.0
  0
LINE
  5
6CC7
330
A
100
AcDbEntity
  8
0
  6
Continuous
 62
     9
100
AcDbLine
 10
9.08332600000034
 20
-75.47499999999996
 30
0.0
 11
9.08332600000034
 21
-65.97499999999979
 31
0.0
  0
LINE
  5
6CC8
330
A
100
AcDbEntity
  8
0
  6
Continuous
 62
     7
100
AcDbLine
 10
-9.0
 20
-75.47499999999996
 30
0.0
 11
-9.0
 21
-65.97499999999979
 31
0.0
  0
LINE
  5
6CC9
330
A
100
AcDbEntity
  8
0
  6
Continuous
 62
     7
100
AcDbLine
 10
9.08332600000034
 20
-65.97499999999979
 30
0.0
 11
-9.0
 21
-65.97499999999979
 31
0.0
  0
LINE
  5
6CCA
330
A
100
AcDbEntity
  8
0
  6
Continuous
 62
     9
100
AcDbLine
 10
13.149111
 20
-75.47499999999996
 30
0.0
 11
13.149111
 21
-65.97499999999979
 31
0.0
  0
LINE
  5
6CCB
330
A
100
AcDbEntity
  8
0
  6
Continuous
 62
     7
100
AcDbLine
 10
9.08332600000034
 20
-65.97499999999979
 30
0.0
 11
13.149111
 21
-65.97499999999979
 31
0.0
  0
LINE
  5
6CCC
330
A
100
AcDbEntity
  8
0
  6
Continuous
 62
     7
100
AcDbLine
 10
43.0
 20
-75.47499999999996
 30
0.0
 11
43.0
 21
-65.97499999999979
 31
0.0
  0
LINE
  5
6CCD
330
A
100
AcDbEntity
  8
0
  6
Continuous
 62
     7
100
AcDbLine
 10
43.0
 20
-65.97499999999979
 30
0.0
 11
13.149111
 21
-65.97499999999979
 31
0.0
  0
ARC
  5
6CCE
330
A
100
AcDbEntity
  8
0
  6
Continuous
 62
     7
100
AcDbCircle
 10
16.50000000000011
 20
-70.47499999999996
 30
0.0
 40
6.025
100
AcDbArc
 50
123.9140469999988
 51
131.5980230000005
  0
ARC
  5
6CCF
330
A
100
AcDbEntity
  8
0
  6
Continuous
 62
     7
100
AcDbCircle
 10
16.50000000000011
 20
-70.47499999999996
 30
0.0
 40
6.025
100
AcDbArc
 50
48.40197699999944
 51
55.64523799999715
  0
ARC
  5
6CD0
330
A
100
AcDbEntity
  8
0
  6
Continuous
 62
     7
100
AcDbCircle
 10
47.75000000000011
 20
-62.47500000000008
 30
0.0
 40
3.995
100
AcDbArc
 50
304.2776669999986
 51
73.97432300000049
  0
LINE
  5
6CD1
330
A
100
AcDbEntity
  8
0
  6
Continuous
 62
     7
100
AcDbLine
 10
-23.0
 20
-63.47499999999996
 30
0.0
 11
-23.0
 21
-61.70499999999993
 31
0.0
  0
LINE
  5
6CD2
330
A
100
AcDbEntity
  8
0
  6
Continuous
 62
     7
100
AcDbLine
 10
-22.85564099999999
 20
-60.05497099999979
 30
0.0
 11
-23.0
 21
-61.70499999999993
 31
0.0
  0
ARC
  5
6CD3
330
A
100
AcDbEntity
  8
0
  6
Continuous
 62
     7
100
AcDbCircle
 10
-21.36134899999979
 20
-60.18570499999976
 30
0.0
 40
1.5
100
AcDbArc
 50
128.8119689999999
 51
175.0000000000002
  0
ARC
  5
6CD4
330
A
100
AcDbEntity
  8
0
  6
Continuous
 62
     7
100
AcDbCircle
 10
-12.89999999999998
 20
-70.70499999999992
 30
0.0
 40
15.0
100
AcDbArc
 50
99.97010400000142
 51
128.8119689999999
  0
LINE
  5
6CD5
330
A
100
AcDbEntity
  8
0
  6
Continuous
 62
     7
100
AcDbLine
 10
-12.89999999999998
 20
-55.47499999999979
 30
0.0
 11
-15.49701399999981
 21
-55.93152699999973
 31
0.0
  0
LINE
  5
6CD6
330
A
100
AcDbEntity
  8
0
  6
Continuous
 62
     7
100
AcDbLine
 10
-12.89999999999998
 20
-55.47499999999979
 30
0.0
 11
43.0
 21
-55.47499999999979
 31
0.0
  0
ARC
  5
6CD7
330
A
100
AcDbEntity
  8
0
  6
Continuous
 62
     7
100
AcDbCircle
 10
43.0
 20
-62.47500000000008
 30
0.0
 40
7.0
100
AcDbArc
 50
0.0
 51
90.0
  0
LINE
  5
6CD8
330
A
100
AcDbEntity
  8
0
  6
Continuous
 62
     7
100
AcDbLine
 10
-23.0
 20
-63.47499999999996
 30
0.0
 11
50.0
 21
-63.47499999999996
 31
0.0
  0
LINE
  5
6CD9
330
A
100
AcDbEntity
  8
0
  6
Continuous
 62
     7
100
AcDbLine
 10
50.0
 20
-63.47499999999996
 30
0.0
 11
50.0
 21
-62.47500000000008
 31
0.0
  0
ARC
  5
6CDA
330
A
100
AcDbEntity
  8
0
  6
Continuous
 62
     7
100
AcDbCircle
 10
-21.36134899999979
 20
-80.26429499999995
 30
0.0
 40
1.5
100
AcDbArc
 50
184.9999999999997
 51
231.1880310000001
  0
LINE
  5
6CDB
330
A
100
AcDbEntity
  8
0
  6
Continuous
 62
     7
100
AcDbLine
 10
-23.0
 20
-78.74499999999978
 30
0.0
 11
-22.85564099999999
 21
-80.39502899999996
 31
0.0
  0
LINE
  5
6CDC
330
A
100
AcDbEntity
  8
0
  6
Continuous
 62
     7
100
AcDbLine
 10
-23.0
 20
-78.74499999999978
 30
0.0
 11
-23.0
 21
-76.9749999999998
 31
0.0
  0
LINE
  5
6CDD
330
A
100
AcDbEntity
  8
0
  6
Continuous
 62
     7
100
AcDbLine
 10
-23.0
 20
-76.9749999999998
 30
0.0
 11
50.0
 21
-76.9749999999998
 31
0.0
  0
LINE
  5
6CDE
330
A
100
AcDbEntity
  8
0
  6
Continuous
 62
     7
100
AcDbLine
 10
50.0
 20
-77.97499999999979
 30
0.0
 11
50.0
 21
-76.9749999999998
 31
0.0
  0
LINE
  5
6CDF
330
A
100
AcDbEntity
  8
0
  6
Continuous
 62
     7
100
AcDbLine
 10
-12.89999999999998
 20
-84.97499999999979
 30
0.0
 11
43.0
 21
-84.97499999999979
 31
0.0
  0
LINE
  5
6CE0
330
A
100
AcDbEntity
  8
0
  6
Continuous
 62
     7
100
AcDbLine
 10
-15.49701399999981
 20
-84.51847300000009
 30
0.0
 11
-12.89999999999998
 21
-84.97499999999979
 31
0.0
  0
ARC
  5
6CE1
330
A
100
AcDbEntity
  8
0
  6
Continuous
 62
     7
100
AcDbCircle
 10
-12.89999999999998
 20
-69.74499999999977
 30
0.0
 40
15.0
100
AcDbArc
 50
231.1880310000001
 51
260.0298959999986
  0
ARC
  5
6CE2
330
A
100
AcDbEntity
  8
0
  6
Continuous
 62
     7
100
AcDbCircle
 10
43.0
 20
-77.97499999999979
 30
0.0
 40
7.0
100
AcDbArc
 50
270.0
 51
0.0
  0
LINE
  5
6CE3
330
A
100
AcDbEntity
  8
0
  6
Continuous
 62
     9
100
AcDbLine
 10
7.728064000000188
 20
-65.97499999999979
 30
0.0
 11
7.728064000000188
 21
-65.47499999999979
 31
0.0
  0
LINE
  5
6CE4
330
A
100
AcDbEntity
  8
0
  6
Continuous
 62
     7
100
AcDbLine
 10
3.283883000000173
 20
-65.97499999999979
 30
0.0
 11
3.283883000000173
 21
-65.47499999999979
 31
0.0
  0
LINE
  5
6CE5
330
A
100
AcDbEntity
  8
0
  6
Continuous
 62
     7
100
AcDbLine
 10
-2.283881999999778
 20
-65.47499999999979
 30
0.0
 11
-2.283881999999778
 21
-65.97499999999979
 31
0.0
  0
LINE
  5
6CE6
330
A
100
AcDbEntity
  8
0
  6
Continuous
 62
     7
100
AcDbLine
 10
-7.5
 20
-65.97499999999979
 30
0.0
 11
-7.5
 21
-65.47499999999979
 31
0.0
  0
LINE
  5
6CE7
330
A
100
AcDbEntity
  8
0
  6
Continuous
 62
     7
100
AcDbLine
 10
12.5
 20
-65.47499999999979
 30
0.0
 11
12.5
 21
-65.97499999999979
 31
0.0
  0
LINE
  5
6CE8
330
A
100
AcDbEntity
  8
0
  6
Continuous
 62
     7
100
AcDbLine
 10
48.5
 20
-64.4749999999998
 30
0.0
 11
50.0
 21
-64.4749999999998
 31
0.0
  0
LINE
  5
6CE9
330
A
100
AcDbEntity
  8
0
  6
Continuous
 62
     7
100
AcDbLine
 10
20.5
 20
-65.97499999999979
 30
0.0
 11
20.5
 21
-65.47499999999979
 31
0.0
  0
LINE
  5
6CEA
330
A
100
AcDbEntity
  8
0
  6
Continuous
 62
     7
100
AcDbLine
 10
50.0
 20
-76.9749999999998
 30
0.0
 11
50.0
 21
-64.4749999999998
 31
0.0
  0
ARC
  5
6CEB
330
A
100
AcDbEntity
  8
0
  6
Continuous
 62
     7
100
AcDbCircle
 10
47.75000000000011
 20
-62.47500000000008
 30
0.0
 40
3.9
100
AcDbArc
 50
305.2344180000022
 51
72.35992999999907
  0
ARC
  5
6CEC
330
A
100
AcDbEntity
  8
0
  6
Continuous
 62
     7
100
AcDbCircle
 10
47.75000000000011
 20
-62.47500000000008
 30
0.0
 40
3.6
100
AcDbArc
 50
308.6821870000024
 51
66.79145699999954
  0
LINE
  5
6CED
330
A
100
AcDbEntity
  8
0
  6
Continuous
 62
     7
100
AcDbLine
 10
48.5
 20
-63.77403799999979
 30
0.0
 11
49.01795000000004
 21
-63.47499999999996
 31
0.0
  0
ARC
  5
6CEE
330
A
100
AcDbEntity
  8
0
  6
Continuous
 62
     7
100
AcDbCircle
 10
47.75000000000011
 20
-62.47500000000008
 30
0.0
 40
1.5
100
AcDbArc
 50
300.0000000000005
 51
318.1896850000017
  0
ARC
  5
6CEF
330
A
100
AcDbEntity
  8
0
  6
Continuous
 62
     7
100
AcDbCircle
 10
16.50000000000011
 20
-70.47499999999996
 30
0.0
 40
5.75
100
AcDbArc
 50
119.5918459999981
 51
128.4999499999988
  0
ARC
  5
6CF0
330
A
100
AcDbEntity
  8
0
  6
Continuous
 62
     7
100
AcDbCircle
 10
16.50000000000011
 20
-70.47499999999996
 30
0.0
 40
5.75
100
AcDbArc
 50
51.50005000000117
 51
60.40815400000191
  0
ARC
  5
6CF1
330
A
100
AcDbEntity
  8
0
  6
Continuous
 62
     7
100
AcDbCircle
 10
16.50000000000011
 20
-70.47499999999996
 30
0.0
 40
5.25
100
AcDbArc
 50
58.99728099999999
 51
72.24721000000184
  0
ARC
  5
6CF2
330
A
100
AcDbEntity
  8
0
  6
Continuous
 62
     7
100
AcDbCircle
 10
16.50000000000011
 20
-70.47499999999996
 30
0.0
 40
5.25
100
AcDbArc
 50
107.7527899999981
 51
121.002719
  0
ARC
  5
6CF3
330
A
100
AcDbEntity
  8
0
  6
Continuous
 62
     7
100
AcDbCircle
 10
16.50000000000011
 20
-70.47499999999996
 30
0.0
 40
6.0
100
AcDbArc
 50
123.5573099999986
 51
131.4096219999983
  0
ARC
  5
6CF4
330
A
100
AcDbEntity
  8
0
  6
Continuous
 62
     7
100
AcDbCircle
 10
16.50000000000011
 20
-70.47499999999996
 30
0.0
 40
6.0
100
AcDbArc
 50
48.18968500000163
 51
56.44269000000133
  0
ARC
  5
6CF5
330
A
100
AcDbEntity
  8
0
  6
Continuous
 62
     9
100
AcDbCircle
 10
16.50000000000011
 20
-70.47499999999996
 30
0.0
 40
5.799999999999998
100
AcDbArc
 50
50.88325599999954
 51
59.54968600000039
  0
ARC
  5
6CF6
330
A
100
AcDbEntity
  8
0
  6
Continuous
 62
     9
100
AcDbCircle
 10
16.50000000000011
 20
-70.47499999999996
 30
0.0
 40
5.799999999999998
100
AcDbArc
 50
120.4503139999996
 51
129.1167440000004
  0
LINE
  5
6CF7
330
A
100
AcDbEntity
  8
0
  6
Continuous
 62
     9
100
AcDbLine
 10
-16.0
 20
141.5249999999998
 30
0.0
 11
-16.0
 21
142.5250000000002
 31
0.0
  0
LINE
  5
6CF8
330
A
100
AcDbEntity
  8
0
  6
Continuous
 62
     7
100
AcDbLine
 10
-21.5
 20
141.5249999999998
 30
0.0
 11
-21.5
 21
142.5250000000002
 31
0.0
  0
LINE
  5
6CF9
330
A
100
AcDbEntity
  8
0
  6
Continuous
 62
     7
100
AcDbLine
 10
-16.0
 20
142.5250000000002
 30
0.0
 11
-21.5
 21
142.5250000000002
 31
0.0
  0
LINE
  5
6CFA
330
A
100
AcDbEntity
  8
0
  6
Continuous
 62
     9
100
AcDbLine
 10
43.0
 20
141.5249999999998
 30
0.0
 11
43.0
 21
142.5250000000002
 31
0.0
  0
LINE
  5
6CFB
330
A
100
AcDbEntity
  8
0
  6
Continuous
 62
     7
100
AcDbLine
 10
43.0
 20
142.5250000000002
 30
0.0
 11
-16.0
 21
142.5250000000002
 31
0.0
  0
LINE
  5
6CFC
330
A
100
AcDbEntity
  8
0
  6
Continuous
 62
     7
100
AcDbLine
 10
48.5
 20
141.5249999999998
 30
0.0
 11
48.5
 21
142.5250000000002
 31
0.0
  0
LINE
  5
6CFD
330
A
100
AcDbEntity
  8
0
  6
Continuous
 62
     7
100
AcDbLine
 10
48.5
 20
142.5250000000002
 30
0.0
 11
43.0
 21
142.5250000000002
 31
0.0
  0
LINE
  5
6CFE
330
A
100
AcDbEntity
  8
0
  6
Continuous
 62
     7
100
AcDbLine
 10
-21.5
 20
155.0250000000002
 30
0.0
 11
-21.5
 21
154.5250000000002
 31
0.0
  0
LINE
  5
6CFF
330
A
100
AcDbEntity
  8
0
  6
Continuous
 62
     9
100
AcDbLine
 10
-16.0
 20
155.0250000000002
 30
0.0
 11
-16.0
 21
154.5250000000002
 31
0.0
  0
LINE
  5
6D00
330
A
100
AcDbEntity
  8
0
  6
Continuous
 62
     7
100
AcDbLine
 10
-21.5
 20
154.5250000000002
 30
0.0
 11
-16.0
 21
154.5250000000002
 31
0.0
  0
LINE
  5
6D01
330
A
100
AcDbEntity
  8
0
  6
Continuous
 62
     9
100
AcDbLine
 10
43.0
 20
155.0250000000002
 30
0.0
 11
43.0
 21
154.5250000000002
 31
0.0
  0
LINE
  5
6D02
330
A
100
AcDbEntity
  8
0
  6
Continuous
 62
     7
100
AcDbLine
 10
-16.0
 20
154.5250000000002
 30
0.0
 11
43.0
 21
154.5250000000002
 31
0.0
  0
LINE
  5
6D03
330
A
100
AcDbEntity
  8
0
  6
Continuous
 62
     7
100
AcDbLine
 10
48.5
 20
155.0250000000002
 30
0.0
 11
48.5
 21
154.5250000000002
 31
0.0
  0
LINE
  5
6D04
330
A
100
AcDbEntity
  8
0
  6
Continuous
 62
     7
100
AcDbLine
 10
43.0
 20
154.5250000000002
 30
0.0
 11
48.5
 21
154.5250000000002
 31
0.0
  0
LINE
  5
6D05
330
A
100
AcDbEntity
  8
0
  6
Continuous
 62
     7
100
AcDbLine
 10
-9.0
 20
153.5250000000001
 30
0.0
 11
-9.0
 21
144.0250000000002
 31
0.0
  0
LINE
  5
6D06
330
A
100
AcDbEntity
  8
0
  6
Continuous
 62
     9
100
AcDbLine
 10
9.08332600000034
 20
153.5250000000001
 30
0.0
 11
9.08332600000034
 21
144.0250000000002
 31
0.0
  0
LINE
  5
6D07
330
A
100
AcDbEntity
  8
0
  6
Continuous
 62
     7
100
AcDbLine
 10
-9.0
 20
144.0250000000002
 30
0.0
 11
9.08332600000034
 21
144.0250000000002
 31
0.0
  0
LINE
  5
6D08
330
A
100
AcDbEntity
  8
0
  6
Continuous
 62
     9
100
AcDbLine
 10
13.149111
 20
153.5250000000001
 30
0.0
 11
13.149111
 21
144.0250000000002
 31
0.0
  0
LINE
  5
6D09
330
A
100
AcDbEntity
  8
0
  6
Continuous
 62
     7
100
AcDbLine
 10
13.149111
 20
144.0250000000002
 30
0.0
 11
9.08332600000034
 21
144.0250000000002
 31
0.0
  0
LINE
  5
6D0A
330
A
100
AcDbEntity
  8
0
  6
Continuous
 62
     7
100
AcDbLine
 10
43.0
 20
153.5250000000001
 30
0.0
 11
43.0
 21
144.0250000000002
 31
0.0
  0
LINE
  5
6D0B
330
A
100
AcDbEntity
  8
0
  6
Continuous
 62
     7
100
AcDbLine
 10
13.149111
 20
144.0250000000002
 30
0.0
 11
43.0
 21
144.0250000000002
 31
0.0
  0
ARC
  5
6D0C
330
A
100
AcDbEntity
  8
0
  6
Continuous
 62
     7
100
AcDbCircle
 10
51.80000000000001
 20
164.5250000000002
 30
0.0
 40
0.5
100
AcDbArc
 50
90.0
 51
180.0
  0
LINE
  5
6D0D
330
A
100
AcDbEntity
  8
0
  6
Continuous
 62
     7
100
AcDbLine
 10
56.5
 20
165.0250000000002
 30
0.0
 11
51.80000000000001
 21
165.0250000000002
 31
0.0
  0
LINE
  5
6D0E
330
A
100
AcDbEntity
  8
0
  6
Continuous
 62
     7
100
AcDbLine
 10
56.5
 20
113.0250000000002
 30
0.0
 11
56.5
 21
165.0250000000002
 31
0.0
  0
LINE
  5
6D0F
330
A
100
AcDbEntity
  8
0
  6
Continuous
 62
     7
100
AcDbLine
 10
51.80000000000001
 20
113.0250000000002
 30
0.0
 11
56.5
 21
113.0250000000002
 31
0.0
  0
LINE
  5
6D10
330
A
100
AcDbEntity
  8
0
  6
Continuous
 62
     7
100
AcDbLine
 10
51.30000000000001
 20
164.5250000000002
 30
0.0
 11
51.30000000000001
 21
163.0250000000002
 31
0.0
  0
ARC
  5
6D11
330
A
100
AcDbEntity
  8
0
  6
Continuous
 62
     7
100
AcDbCircle
 10
51.80000000000001
 20
113.5250000000002
 30
0.0
 40
0.5
100
AcDbArc
 50
180.0
 51
270.0
  0
ARC
  5
6D12
330
A
100
AcDbEntity
  8
0
  6
Continuous
 62
     7
100
AcDbCircle
 10
-18.203597
 20
148.5250000000002
 30
0.0
 40
71.0
100
AcDbArc
 50
348.2158439999981
 51
11.7841560000019
  0
LINE
  5
6D13
330
A
100
AcDbEntity
  8
0
  6
Continuous
 62
     7
100
AcDbLine
 10
51.30000000000001
 20
134.0250000000002
 30
0.0
 11
51.30000000000001
 21
113.5250000000002
 31
0.0
  0
ARC
  5
6D14
330
A
100
AcDbEntity
  8
0
  6
Continuous
 62
     7
100
AcDbCircle
 10
49.80000000000001
 20
132.5250000000001
 30
0.0
 40
1.5
100
AcDbArc
 50
0.0
 51
90.0
  0
LINE
  5
6D15
330
A
100
AcDbEntity
  8
0
  6
Continuous
 62
     7
100
AcDbLine
 10
45.59807700000021
 20
134.0250000000002
 30
0.0
 11
49.80000000000001
 21
134.0250000000002
 31
0.0
  0
LINE
  5
6D16
330
A
100
AcDbEntity
  8
0
  6
Continuous
 62
     7
100
AcDbLine
 10
49.80000000000001
 20
163.0250000000002
 30
0.0
 11
43.0
 21
163.0250000000002
 31
0.0
  0
ARC
  5
6D17
330
A
100
AcDbEntity
  8
0
  6
Continuous
 62
     7
100
AcDbCircle
 10
49.80000000000001
 20
164.5250000000002
 30
0.0
 40
1.5
100
AcDbArc
 50
270.0
 51
0.0
  0
ARC
  5
6D18
330
A
100
AcDbEntity
  8
0
  6
Continuous
 62
     7
100
AcDbCircle
 10
16.50000000000011
 20
148.5250000000002
 30
0.0
 40
6.025
100
AcDbArc
 50
304.3547620000028
 51
311.5980230000006
  0
ARC
  5
6D19
330
A
100
AcDbEntity
  8
0
  6
Continuous
 62
     7
100
AcDbCircle
 10
16.50000000000011
 20
148.5250000000002
 30
0.0
 40
6.025
100
AcDbArc
 50
228.4019769999995
 51
236.2090600000003
  0
LINE
  5
6D1A
330
A
100
AcDbEntity
  8
0
  6
Continuous
 62
     9
100
AcDbLine
 10
-16.0
 20
141.5249999999998
 30
0.0
 11
-16.0
 21
142.5250000000002
 31
0.0
  0
LINE
  5
6D1B
330
A
100
AcDbEntity
  8
0
  6
Continuous
 62
     9
100
AcDbLine
 10
-16.0
 20
142.5250000000002
 30
0.0
 11
-16.0
 21
143.5250000000002
 31
0.0
  0
LINE
  5
6D1C
330
A
100
AcDbEntity
  8
0
  6
Continuous
 62
     7
100
AcDbLine
 10
-21.5
 20
141.5249999999998
 30
0.0
 11
-21.5
 21
142.5250000000002
 31
0.0
  0
LINE
  5
6D1D
330
A
100
AcDbEntity
  8
0
  6
Continuous
 62
     7
100
AcDbLine
 10
-21.5
 20
142.5250000000002
 30
0.0
 11
-21.5
 21
143.5250000000002
 31
0.0
  0
LINE
  5
6D1E
330
A
100
AcDbEntity
  8
0
  6
Continuous
 62
     7
100
AcDbLine
 10
-16.0
 20
143.5250000000002
 30
0.0
 11
-21.5
 21
143.5250000000002
 31
0.0
  0
LINE
  5
6D1F
330
A
100
AcDbEntity
  8
0
  6
Continuous
 62
     9
100
AcDbLine
 10
43.0
 20
141.5249999999998
 30
0.0
 11
43.0
 21
142.5250000000002
 31
0.0
  0
LINE
  5
6D20
330
A
100
AcDbEntity
  8
0
  6
Continuous
 62
     9
100
AcDbLine
 10
43.0
 20
142.5250000000002
 30
0.0
 11
43.0
 21
143.5250000000002
 31
0.0
  0
LINE
  5
6D21
330
A
100
AcDbEntity
  8
0
  6
Continuous
 62
     7
100
AcDbLine
 10
43.0
 20
143.5250000000002
 30
0.0
 11
-16.0
 21
143.5250000000002
 31
0.0
  0
LINE
  5
6D22
330
A
100
AcDbEntity
  8
0
  6
Continuous
 62
     7
100
AcDbLine
 10
48.5
 20
141.5249999999998
 30
0.0
 11
48.5
 21
142.5250000000002
 31
0.0
  0
LINE
  5
6D23
330
A
100
AcDbEntity
  8
0
  6
Continuous
 62
     7
100
AcDbLine
 10
48.5
 20
142.5250000000002
 30
0.0
 11
48.5
 21
143.5250000000002
 31
0.0
  0
LINE
  5
6D24
330
A
100
AcDbEntity
  8
0
  6
Continuous
 62
     7
100
AcDbLine
 10
48.5
 20
143.5250000000002
 30
0.0
 11
43.0
 21
143.5250000000002
 31
0.0
  0
LINE
  5
6D25
330
A
100
AcDbEntity
  8
0
  6
Continuous
 62
     7
100
AcDbLine
 10
-21.5
 20
155.0250000000002
 30
0.0
 11
-21.5
 21
154.5250000000002
 31
0.0
  0
LINE
  5
6D26
330
A
100
AcDbEntity
  8
0
  6
Continuous
 62
     7
100
AcDbLine
 10
-21.5
 20
154.5250000000002
 30
0.0
 11
-21.5
 21
153.5250000000001
 31
0.0
  0
LINE
  5
6D27
330
A
100
AcDbEntity
  8
0
  6
Continuous
 62
     9
100
AcDbLine
 10
-16.0
 20
155.0250000000002
 30
0.0
 11
-16.0
 21
154.5250000000002
 31
0.0
  0
LINE
  5
6D28
330
A
100
AcDbEntity
  8
0
  6
Continuous
 62
     9
100
AcDbLine
 10
-16.0
 20
154.5250000000002
 30
0.0
 11
-16.0
 21
153.5250000000001
 31
0.0
  0
LINE
  5
6D29
330
A
100
AcDbEntity
  8
0
  6
Continuous
 62
     7
100
AcDbLine
 10
-21.5
 20
153.5250000000001
 30
0.0
 11
-16.0
 21
153.5250000000001
 31
0.0
  0
LINE
  5
6D2A
330
A
100
AcDbEntity
  8
0
  6
Continuous
 62
     9
100
AcDbLine
 10
43.0
 20
155.0250000000002
 30
0.0
 11
43.0
 21
154.5250000000002
 31
0.0
  0
LINE
  5
6D2B
330
A
100
AcDbEntity
  8
0
  6
Continuous
 62
     9
100
AcDbLine
 10
43.0
 20
154.5250000000002
 30
0.0
 11
43.0
 21
153.5250000000001
 31
0.0
  0
LINE
  5
6D2C
330
A
100
AcDbEntity
  8
0
  6
Continuous
 62
     7
100
AcDbLine
 10
-16.0
 20
153.5250000000001
 30
0.0
 11
43.0
 21
153.5250000000001
 31
0.0
  0
LINE
  5
6D2D
330
A
100
AcDbEntity
  8
0
  6
Continuous
 62
     7
100
AcDbLine
 10
48.5
 20
155.0250000000002
 30
0.0
 11
48.5
 21
154.5250000000002
 31
0.0
  0
LINE
  5
6D2E
330
A
100
AcDbEntity
  8
0
  6
Continuous
 62
     7
100
AcDbLine
 10
48.5
 20
154.5250000000002
 30
0.0
 11
48.5
 21
153.5250000000001
 31
0.0
  0
LINE
  5
6D2F
330
A
100
AcDbEntity
  8
0
  6
Continuous
 62
     7
100
AcDbLine
 10
43.0
 20
153.5250000000001
 30
0.0
 11
48.5
 21
153.5250000000001
 31
0.0
  0
LINE
  5
6D30
330
A
100
AcDbEntity
  8
0
  6
Continuous
 62
     7
100
AcDbLine
 10
-9.0
 20
153.5250000000001
 30
0.0
 11
-9.0
 21
144.0250000000002
 31
0.0
  0
LINE
  5
6D31
330
A
100
AcDbEntity
  8
0
  6
Continuous
 62
     9
100
AcDbLine
 10
9.08332600000034
 20
153.5250000000001
 30
0.0
 11
9.08332600000034
 21
144.0250000000002
 31
0.0
  0
LINE
  5
6D32
330
A
100
AcDbEntity
  8
0
  6
Continuous
 62
     7
100
AcDbLine
 10
-9.0
 20
144.0250000000002
 30
0.0
 11
9.08332600000034
 21
144.0250000000002
 31
0.0
  0
LINE
  5
6D33
330
A
100
AcDbEntity
  8
0
  6
Continuous
 62
     9
100
AcDbLine
 10
13.149111
 20
153.5250000000001
 30
0.0
 11
13.149111
 21
144.0250000000002
 31
0.0
  0
LINE
  5
6D34
330
A
100
AcDbEntity
  8
0
  6
Continuous
 62
     7
100
AcDbLine
 10
13.149111
 20
144.0250000000002
 30
0.0
 11
9.08332600000034
 21
144.0250000000002
 31
0.0
  0
LINE
  5
6D35
330
A
100
AcDbEntity
  8
0
  6
Continuous
 62
     7
100
AcDbLine
 10
43.0
 20
153.5250000000001
 30
0.0
 11
43.0
 21
144.0250000000002
 31
0.0
  0
LINE
  5
6D36
330
A
100
AcDbEntity
  8
0
  6
Continuous
 62
     7
100
AcDbLine
 10
13.149111
 20
144.0250000000002
 30
0.0
 11
43.0
 21
144.0250000000002
 31
0.0
  0
ARC
  5
6D37
330
A
100
AcDbEntity
  8
0
  6
Continuous
 62
     7
100
AcDbCircle
 10
-21.36134899999979
 20
138.2357049999999
 30
0.0
 40
1.5
100
AcDbArc
 50
184.9999999999997
 51
231.1880310000001
  0
LINE
  5
6D38
330
A
100
AcDbEntity
  8
0
  6
Continuous
 62
     7
100
AcDbLine
 10
-23.0
 20
139.7550000000002
 30
0.0
 11
-22.85564099999999
 21
138.1049710000002
 31
0.0
  0
LINE
  5
6D39
330
A
100
AcDbEntity
  8
0
  6
Continuous
 62
     7
100
AcDbLine
 10
-23.0
 20
141.5249999999998
 30
0.0
 11
-23.0
 21
139.7550000000002
 31
0.0
  0
LINE
  5
6D3A
330
A
100
AcDbEntity
  8
0
  6
Continuous
 62
     7
100
AcDbLine
 10
50.0
 20
141.5249999999998
 30
0.0
 11
50.0
 21
140.5250000000002
 31
0.0
  0
ARC
  5
6D3B
330
A
100
AcDbEntity
  8
0
  6
Continuous
 62
     7
100
AcDbCircle
 10
43.0
 20
140.5250000000002
 30
0.0
 40
7.0
100
AcDbArc
 50
270.0
 51
0.0
  0
LINE
  5
6D3C
330
A
100
AcDbEntity
  8
0
  6
Continuous
 62
     7
100
AcDbLine
 10
43.0
 20
133.5249999999998
 30
0.0
 11
-12.89999999999998
 21
133.5249999999998
 31
0.0
  0
LINE
  5
6D3D
330
A
100
AcDbEntity
  8
0
  6
Continuous
 62
     7
100
AcDbLine
 10
-15.49701399999981
 20
133.9815269999999
 30
0.0
 11
-12.89999999999998
 21
133.5249999999998
 31
0.0
  0
ARC
  5
6D3E
330
A
100
AcDbEntity
  8
0
  6
Continuous
 62
     7
100
AcDbCircle
 10
-12.89999999999998
 20
148.7550000000002
 30
0.0
 40
15.0
100
AcDbArc
 50
231.1880310000001
 51
260.0298959999986
  0
LINE
  5
6D3F
330
A
100
AcDbEntity
  8
0
  6
Continuous
 62
     7
100
AcDbLine
 10
50.0
 20
141.5249999999998
 30
0.0
 11
-23.0
 21
141.5249999999998
 31
0.0
  0
ARC
  5
6D40
330
A
100
AcDbEntity
  8
0
  6
Continuous
 62
     7
100
AcDbCircle
 10
43.0
 20
156.0250000000002
 30
0.0
 40
7.0
100
AcDbArc
 50
0.0
 51
90.0
  0
LINE
  5
6D41
330
A
100
AcDbEntity
  8
0
  6
Continuous
 62
     7
100
AcDbLine
 10
50.0
 20
156.0250000000002
 30
0.0
 11
50.0
 21
155.0250000000002
 31
0.0
  0
LINE
  5
6D42
330
A
100
AcDbEntity
  8
0
  6
Continuous
 62
     7
100
AcDbLine
 10
-23.0
 20
156.7950000000002
 30
0.0
 11
-23.0
 21
155.0250000000002
 31
0.0
  0
LINE
  5
6D43
330
A
100
AcDbEntity
  8
0
  6
Continuous
 62
     7
100
AcDbLine
 10
-22.85564099999999
 20
158.4450289999998
 30
0.0
 11
-23.0
 21
156.7950000000002
 31
0.0
  0
ARC
  5
6D44
330
A
100
AcDbEntity
  8
0
  6
Continuous
 62
     7
100
AcDbCircle
 10
-21.36134899999979
 20
158.3142950000002
 30
0.0
 40
1.5
100
AcDbArc
 50
128.8119689999999
 51
175.0000000000002
  0
ARC
  5
6D45
330
A
100
AcDbEntity
  8
0
  6
Continuous
 62
     7
100
AcDbCircle
 10
-12.89999999999998
 20
147.7950000000002
 30
0.0
 40
15.0
100
AcDbArc
 50
99.97010400000142
 51
128.8119689999999
  0
LINE
  5
6D46
330
A
100
AcDbEntity
  8
0
  6
Continuous
 62
     7
100
AcDbLine
 10
-12.89999999999998
 20
163.0250000000002
 30
0.0
 11
-15.49701399999981
 21
162.5684730000003
 31
0.0
  0
LINE
  5
6D47
330
A
100
AcDbEntity
  8
0
  6
Continuous
 62
     7
100
AcDbLine
 10
43.0
 20
163.0250000000002
 30
0.0
 11
-12.89999999999998
 21
163.0250000000002
 31
0.0
  0
LINE
  5
6D48
330
A
100
AcDbEntity
  8
0
  6
Continuous
 62
     7
100
AcDbLine
 10
50.0
 20
155.0250000000002
 30
0.0
 11
-23.0
 21
155.0250000000002
 31
0.0
  0
LINE
  5
6D49
330
A
100
AcDbEntity
  8
0
  6
Continuous
 62
     7
100
AcDbLine
 10
-7.5
 20
144.0250000000002
 30
0.0
 11
-7.5
 21
143.5250000000002
 31
0.0
  0
LINE
  5
6D4A
330
A
100
AcDbEntity
  8
0
  6
Continuous
 62
     7
100
AcDbLine
 10
-2.283881999999778
 20
144.0250000000002
 30
0.0
 11
-2.283881999999778
 21
143.5250000000002
 31
0.0
  0
LINE
  5
6D4B
330
A
100
AcDbEntity
  8
0
  6
Continuous
 62
     7
100
AcDbLine
 10
3.283883000000173
 20
143.5250000000002
 30
0.0
 11
3.283883000000173
 21
144.0250000000002
 31
0.0
  0
LINE
  5
6D4C
330
A
100
AcDbEntity
  8
0
  6
Continuous
 62
     9
100
AcDbLine
 10
7.728064000000188
 20
144.0250000000002
 30
0.0
 11
7.728064000000188
 21
143.5250000000002
 31
0.0
  0
LINE
  5
6D4D
330
A
100
AcDbEntity
  8
0
  6
Continuous
 62
     7
100
AcDbLine
 10
12.5
 20
144.0250000000002
 30
0.0
 11
12.5
 21
143.5250000000002
 31
0.0
  0
LINE
  5
6D4E
330
A
100
AcDbEntity
  8
0
  6
Continuous
 62
     7
100
AcDbLine
 10
50.0
 20
142.5250000000002
 30
0.0
 11
48.5
 21
142.5250000000002
 31
0.0
  0
LINE
  5
6D4F
330
A
100
AcDbEntity
  8
0
  6
Continuous
 62
     7
100
AcDbLine
 10
20.5
 20
143.5250000000002
 30
0.0
 11
20.5
 21
144.0250000000002
 31
0.0
  0
LINE
  5
6D50
330
A
100
AcDbEntity
  8
0
  6
Continuous
 62
     7
100
AcDbLine
 10
50.0
 20
155.0250000000002
 30
0.0
 11
50.0
 21
142.5250000000002
 31
0.0
  0
ARC
  5
6D51
330
A
100
AcDbEntity
  8
0
  6
Continuous
 62
     7
100
AcDbCircle
 10
16.50000000000011
 20
148.5250000000002
 30
0.0
 40
5.25
100
AcDbArc
 50
238.997281
 51
252.2472100000018
  0
ARC
  5
6D52
330
A
100
AcDbEntity
  8
0
  6
Continuous
 62
     7
100
AcDbCircle
 10
16.50000000000011
 20
148.5250000000002
 30
0.0
 40
5.25
100
AcDbArc
 50
287.7527899999982
 51
301.002719
  0
ARC
  5
6D53
330
A
100
AcDbEntity
  8
0
  6
Continuous
 62
     7
100
AcDbCircle
 10
16.50000000000011
 20
148.5250000000002
 30
0.0
 40
5.75
100
AcDbArc
 50
299.5918459999981
 51
308.4999499999988
  0
ARC
  5
6D54
330
A
100
AcDbEntity
  8
0
  6
Continuous
 62
     7
100
AcDbCircle
 10
16.50000000000011
 20
148.5250000000002
 30
0.0
 40
5.75
100
AcDbArc
 50
231.5000500000012
 51
240.4081540000019
  0
ARC
  5
6D55
330
A
100
AcDbEntity
  8
0
  6
Continuous
 62
     9
100
AcDbCircle
 10
16.50000000000011
 20
148.5250000000002
 30
0.0
 40
5.799999999999998
100
AcDbArc
 50
230.8832559999995
 51
239.5496860000004
  0
ARC
  5
6D56
330
A
100
AcDbEntity
  8
0
  6
Continuous
 62
     9
100
AcDbCircle
 10
16.50000000000011
 20
148.5250000000002
 30
0.0
 40
5.799999999999998
100
AcDbArc
 50
300.4503139999996
 51
309.1167440000005
  0
ARC
  5
6D57
330
A
100
AcDbEntity
  8
0
  6
Continuous
 62
     7
100
AcDbCircle
 10
16.50000000000011
 20
148.5250000000002
 30
0.0
 40
6.0
100
AcDbArc
 50
303.5573099999987
 51
311.8103149999984
  0
ARC
  5
6D58
330
A
100
AcDbEntity
  8
0
  6
Continuous
 62
     7
100
AcDbCircle
 10
16.50000000000011
 20
148.5250000000002
 30
0.0
 40
6.0
100
AcDbArc
 50
228.5903780000017
 51
236.4426900000013
  0
LINE
  5
6D59
330
A
100
AcDbEntity
  8
0
  6
Continuous
 62
     7
100
AcDbLine
 10
0.7825760000002902
 20
12.50000000000023
 30
0.0
 11
0.7825760000002902
 21
12.513013
 31
0.0
  0
LINE
  5
6D5A
330
A
100
AcDbEntity
  8
0
  6
Continuous
 62
     7
100
AcDbLine
 10
0.7825760000002902
 20
12.513013
 30
0.0
 11
0.7825760000002902
 21
16.50000000000023
 31
0.0
  0
LINE
  5
6D5B
330
A
100
AcDbEntity
  8
0
  6
Continuous
 62
     7
100
AcDbLine
 10
0.7825760000002902
 20
61.60000000000025
 30
0.0
 11
0.7825760000002902
 21
61.61301300000002
 31
0.0
  0
LINE
  5
6D5C
330
A
100
AcDbEntity
  8
0
  6
Continuous
 62
     7
100
AcDbLine
 10
0.7825760000002902
 20
61.61301300000002
 30
0.0
 11
0.7825760000002902
 21
65.60000000000025
 31
0.0
  0
LINE
  5
6D5D
330
A
100
AcDbEntity
  8
0
  6
Continuous
 62
     7
100
AcDbLine
 10
0.7825760000002902
 20
65.60000000000025
 30
0.0
 11
0.7825760000002902
 21
65.69999999999993
 31
0.0
  0
LINE
  5
6D5E
330
A
100
AcDbEntity
  8
0
  6
Continuous
 62
     7
100
AcDbLine
 10
0.7825760000002902
 20
12.4000000000002
 30
0.0
 11
0.7825760000002902
 21
12.4130160000002
 31
0.0
  0
LINE
  5
6D5F
330
A
100
AcDbEntity
  8
0
  6
Continuous
 62
     7
100
AcDbLine
 10
0.7825760000002902
 20
12.4130160000002
 30
0.0
 11
0.7825760000002902
 21
12.50000000000023
 31
0.0
  0
LINE
  5
6D60
330
A
100
AcDbEntity
  8
0
  6
Continuous
 62
     7
100
AcDbLine
 10
51.30000000000001
 20
-15.0
 30
0.0
 11
51.30000000000001
 21
9.000000000000227
 31
0.0
  0
LINE
  5
6D61
330
A
100
AcDbEntity
  8
0
  6
Continuous
 62
     7
100
AcDbLine
 10
51.30000000000001
 20
9.000000000000227
 30
0.0
 11
51.30000000000001
 21
69.00000000000023
 31
0.0
  0
LINE
  5
6D62
330
A
100
AcDbEntity
  8
0
  6
Continuous
 62
     7
100
AcDbLine
 10
51.30000000000001
 20
69.00000000000023
 30
0.0
 11
51.30000000000001
 21
93.00000000000023
 31
0.0
  0
LINE
  5
6D63
330
A
100
AcDbEntity
  8
0
  6
Continuous
 62
     7
100
AcDbLine
 10
51.30000000000001
 20
93.00000000000023
 30
0.0
 11
51.80000000000001
 21
93.00000000000023
 31
0.0
  0
LINE
  5
6D64
330
A
100
AcDbEntity
  8
0
  6
Continuous
 62
     9
100
AcDbLine
 10
51.80000000000001
 20
93.00000000000023
 30
0.0
 11
51.80000000000001
 21
-15.0
 31
0.0
  0
LINE
  5
6D65
330
A
100
AcDbEntity
  8
0
  6
Continuous
 62
     7
100
AcDbLine
 10
51.80000000000001
 20
-15.0
 30
0.0
 11
51.30000000000001
 21
-15.0
 31
0.0
  0
LINE
  5
6D66
330
A
100
AcDbEntity
  8
0
  6
Continuous
 62
     7
100
AcDbLine
 10
56.5
 20
93.00000000000023
 30
0.0
 11
56.5
 21
-15.0
 31
0.0
  0
LINE
  5
6D67
330
A
100
AcDbEntity
  8
0
  6
Continuous
 62
     7
100
AcDbLine
 10
51.80000000000001
 20
93.00000000000023
 30
0.0
 11
56.5
 21
93.00000000000023
 31
0.0
  0
LINE
  5
6D68
330
A
100
AcDbEntity
  8
0
  6
Continuous
 62
     7
100
AcDbLine
 10
56.5
 20
-15.0
 30
0.0
 11
51.80000000000001
 21
-15.0
 31
0.0
  0
LINE
  5
6D69
330
A
100
AcDbEntity
  8
0
  6
Continuous
 62
     9
100
AcDbLine
 10
49.80000000000001
 20
9.000000000000227
 30
0.0
 11
49.80000000000001
 21
69.00000000000023
 31
0.0
  0
LINE
  5
6D6A
330
A
100
AcDbEntity
  8
0
  6
Continuous
 62
     7
100
AcDbLine
 10
51.30000000000001
 20
69.00000000000023
 30
0.0
 11
49.80000000000001
 21
69.00000000000023
 31
0.0
  0
LINE
  5
6D6B
330
A
100
AcDbEntity
  8
0
  6
Continuous
 62
     7
100
AcDbLine
 10
49.80000000000001
 20
9.000000000000227
 30
0.0
 11
51.30000000000001
 21
9.000000000000227
 31
0.0
  0
LINE
  5
6D6C
330
A
100
AcDbEntity
  8
0
  6
Continuous
 62
     9
100
AcDbLine
 10
16.50000000000011
 20
69.00000000000023
 30
0.0
 11
16.50000000000011
 21
9.000000000000227
 31
0.0
  0
LINE
  5
6D6D
330
A
100
AcDbEntity
  8
0
  6
Continuous
 62
     7
100
AcDbLine
 10
16.50000000000011
 20
69.00000000000023
 30
0.0
 11
2.0
 21
69.00000000000023
 31
0.0
  0
LINE
  5
6D6E
330
A
100
AcDbEntity
  8
0
  6
Continuous
 62
     7
100
AcDbLine
 10
16.50000000000011
 20
9.000000000000227
 30
0.0
 11
2.0
 21
9.000000000000227
 31
0.0
  0
LINE
  5
6D6F
330
A
100
AcDbEntity
  8
0
  6
Continuous
 62
     7
100
AcDbLine
 10
49.80000000000001
 20
69.00000000000023
 30
0.0
 11
16.50000000000011
 21
69.00000000000023
 31
0.0
  0
LINE
  5
6D70
330
A
100
AcDbEntity
  8
0
  6
Continuous
 62
     7
100
AcDbLine
 10
49.80000000000001
 20
9.000000000000227
 30
0.0
 11
16.50000000000011
 21
9.000000000000227
 31
0.0
  0
LINE
  5
6D71
330
A
100
AcDbEntity
  8
0
  6
Continuous
 62
     7
100
AcDbLine
 10
7.0
 20
69.50000000000023
 30
0.0
 11
26.0
 21
69.50000000000023
 31
0.0
  0
LINE
  5
6D72
330
A
100
AcDbEntity
  8
0
  6
Continuous
 62
     9
100
AcDbLine
 10
-15.49701399999981
 20
93.04999999999996
 30
0.0
 11
-15.49701399999981
 21
-14.94999999999993
 31
0.0
  0
LINE
  5
6D73
330
A
100
AcDbEntity
  8
0
  6
Continuous
 62
     7
100
AcDbLine
 10
-12.89999999999998
 20
-14.94999999999993
 30
0.0
 11
-12.89999999999998
 21
93.04999999999996
 31
0.0
  0
LINE
  5
6D74
330
A
100
AcDbEntity
  8
0
  6
Continuous
 62
     7
100
AcDbLine
 10
-15.49701399999981
 20
93.04999999999996
 30
0.0
 11
-12.89999999999998
 21
93.04999999999996
 31
0.0
  0
LINE
  5
6D75
330
A
100
AcDbEntity
  8
0
  6
Continuous
 62
     7
100
AcDbLine
 10
-12.89999999999998
 20
-14.94999999999993
 30
0.0
 11
-15.49701399999981
 21
-14.94999999999993
 31
0.0
  0
LINE
  5
6D76
330
A
100
AcDbEntity
  8
0
  6
Continuous
 62
     7
100
AcDbLine
 10
31.17084400000016
 20
69.60000000000025
 30
0.0
 11
1.5
 21
69.60000000000025
 31
0.0
  0
ARC
  5
6D77
330
A
100
AcDbEntity
  8
0
  6
Continuous
 62
     7
100
AcDbCircle
 10
1.5
 20
68.10000000000025
 30
0.0
 40
1.5
100
AcDbArc
 50
90.0
 51
180.0
  0
LINE
  5
6D78
330
A
100
AcDbEntity
  8
0
  6
Continuous
 62
     7
100
AcDbLine
 10
0.0
 20
68.10000000000025
 30
0.0
 11
0.0
 21
10.0
 31
0.0
  0
ARC
  5
6D79
330
A
100
AcDbEntity
  8
0
  6
Continuous
 62
     7
100
AcDbCircle
 10
1.5
 20
10.0
 30
0.0
 40
1.5
100
AcDbArc
 50
180.0
 51
270.0
  0
LINE
  5
6D7A
330
A
100
AcDbEntity
  8
0
  6
Continuous
 62
     7
100
AcDbLine
 10
1.5
 20
8.500000000000227
 30
0.0
 11
31.17084400000016
 21
8.500000000000227
 31
0.0
  0
ARC
  5
6D7B
330
A
100
AcDbEntity
  8
0
  6
Continuous
 62
     7
100
AcDbCircle
 10
32.0
 20
9.750000000000227
 30
0.0
 40
1.5
100
AcDbArc
 50
236.4426900000013
 51
270.0
  0
LINE
  5
6D7C
330
A
100
AcDbEntity
  8
0
  6
Continuous
 62
     7
100
AcDbLine
 10
32.0
 20
8.25
 30
0.0
 11
32.0
 21
8.050000000000181
 31
0.0
  0
LINE
  5
6D7D
330
A
100
AcDbEntity
  8
0
  6
Continuous
 62
     7
100
AcDbLine
 10
32.0
 20
8.050000000000181
 30
0.0
 11
43.0
 21
8.050000000000181
 31
0.0
  0
LINE
  5
6D7E
330
A
100
AcDbEntity
  8
0
  6
Continuous
 62
     9
100
AcDbLine
 10
43.0
 20
-14.94999999999993
 30
0.0
 11
43.0
 21
8.050000000000181
 31
0.0
  0
LINE
  5
6D7F
330
A
100
AcDbEntity
  8
0
  6
Continuous
 62
     9
100
AcDbLine
 10
43.0
 20
70.05000000000018
 30
0.0
 11
43.0
 21
93.04999999999996
 31
0.0
  0
LINE
  5
6D80
330
A
100
AcDbEntity
  8
0
  6
Continuous
 62
     7
100
AcDbLine
 10
43.0
 20
70.05000000000018
 30
0.0
 11
32.0
 21
70.05000000000018
 31
0.0
  0
LINE
  5
6D81
330
A
100
AcDbEntity
  8
0
  6
Continuous
 62
     7
100
AcDbLine
 10
32.0
 20
70.05000000000018
 30
0.0
 11
32.0
 21
69.85000000000025
 31
0.0
  0
ARC
  5
6D82
330
A
100
AcDbEntity
  8
0
  6
Continuous
 62
     7
100
AcDbCircle
 10
32.0
 20
68.35000000000025
 30
0.0
 40
1.5
100
AcDbArc
 50
90.0
 51
123.5573099999986
  0
LINE
  5
6D83
330
A
100
AcDbEntity
  8
0
  6
Continuous
 62
     7
100
AcDbLine
 10
-12.89999999999998
 20
93.04999999999996
 30
0.0
 11
43.0
 21
93.04999999999996
 31
0.0
  0
LINE
  5
6D84
330
A
100
AcDbEntity
  8
0
  6
Continuous
 62
     7
100
AcDbLine
 10
43.0
 20
-14.94999999999993
 30
0.0
 11
-12.89999999999998
 21
-14.94999999999993
 31
0.0
  0
LINE
  5
6D85
330
A
100
AcDbEntity
  8
0
  6
Continuous
 62
     7
100
AcDbLine
 10
50.0
 20
8.050000000000181
 30
0.0
 11
50.0
 21
-14.94999999999993
 31
0.0
  0
LINE
  5
6D86
330
A
100
AcDbEntity
  8
0
  6
Continuous
 62
     7
100
AcDbLine
 10
50.0
 20
8.050000000000181
 30
0.0
 11
43.0
 21
8.050000000000181
 31
0.0
  0
LINE
  5
6D87
330
A
100
AcDbEntity
  8
0
  6
Continuous
 62
     7
100
AcDbLine
 10
50.0
 20
-14.94999999999993
 30
0.0
 11
43.0
 21
-14.94999999999993
 31
0.0
  0
LINE
  5
6D88
330
A
100
AcDbEntity
  8
0
  6
Continuous
 62
     7
100
AcDbLine
 10
50.0
 20
93.04999999999996
 30
0.0
 11
50.0
 21
70.05000000000018
 31
0.0
  0
LINE
  5
6D89
330
A
100
AcDbEntity
  8
0
  6
Continuous
 62
     7
100
AcDbLine
 10
43.0
 20
70.05000000000018
 30
0.0
 11
50.0
 21
70.05000000000018
 31
0.0
  0
LINE
  5
6D8A
330
A
100
AcDbEntity
  8
0
  6
Continuous
 62
     7
100
AcDbLine
 10
43.0
 20
93.04999999999996
 30
0.0
 11
50.0
 21
93.04999999999996
 31
0.0
  0
LINE
  5
6D8B
330
A
100
AcDbEntity
  8
0
  6
Continuous
 62
     9
100
AcDbLine
 10
-22.30149899999981
 20
93.04999999999996
 30
0.0
 11
-22.30149899999981
 21
-14.94999999999993
 31
0.0
  0
LINE
  5
6D8C
330
A
100
AcDbEntity
  8
0
  6
Continuous
 62
     7
100
AcDbLine
 10
-22.30149899999981
 20
93.04999999999996
 30
0.0
 11
-15.49701399999981
 21
93.04999999999996
 31
0.0
  0
LINE
  5
6D8D
330
A
100
AcDbEntity
  8
0
  6
Continuous
 62
     7
100
AcDbLine
 10
-15.49701399999981
 20
-14.94999999999993
 30
0.0
 11
-22.30149899999981
 21
-14.94999999999993
 31
0.0
  0
LINE
  5
6D8E
330
A
100
AcDbEntity
  8
0
  6
Continuous
 62
     9
100
AcDbLine
 10
-22.85564099999999
 20
93.04999999999996
 30
0.0
 11
-22.85564099999999
 21
-14.94999999999993
 31
0.0
  0
LINE
  5
6D8F
330
A
100
AcDbEntity
  8
0
  6
Continuous
 62
     7
100
AcDbLine
 10
-22.85564099999999
 20
93.04999999999996
 30
0.0
 11
-22.30149899999981
 21
93.04999999999996
 31
0.0
  0
LINE
  5
6D90
330
A
100
AcDbEntity
  8
0
  6
Continuous
 62
     7
100
AcDbLine
 10
-22.30149899999981
 20
-14.94999999999993
 30
0.0
 11
-22.85564099999999
 21
-14.94999999999993
 31
0.0
  0
LINE
  5
6D91
330
A
100
AcDbEntity
  8
0
  6
Continuous
 62
     7
100
AcDbLine
 10
-23.0
 20
93.04999999999996
 30
0.0
 11
-23.0
 21
-14.94999999999993
 31
0.0
  0
LINE
  5
6D92
330
A
100
AcDbEntity
  8
0
  6
Continuous
 62
     7
100
AcDbLine
 10
-23.0
 20
93.04999999999996
 30
0.0
 11
-22.85564099999999
 21
93.04999999999996
 31
0.0
  0
LINE
  5
6D93
330
A
100
AcDbEntity
  8
0
  6
Continuous
 62
     7
100
AcDbLine
 10
-22.85564099999999
 20
-14.94999999999993
 30
0.0
 11
-23.0
 21
-14.94999999999993
 31
0.0
  0
LINE
  5
6D94
330
A
100
AcDbEntity
  8
0
  6
Continuous
 62
     7
100
AcDbLine
 10
20.5
 20
69.50000000000023
 30
0.0
 11
20.5
 21
69.60000000000025
 31
0.0
  0
LINE
  5
6D95
330
A
100
AcDbEntity
  8
0
  6
Continuous
 62
     7
100
AcDbLine
 10
12.5
 20
69.50000000000023
 30
0.0
 11
12.5
 21
69.60000000000025
 31
0.0
  0
LINE
  5
6D96
330
A
100
AcDbEntity
  8
0
  6
Continuous
 62
     7
100
AcDbLine
 10
0.0
 20
12.50000000000023
 30
0.0
 11
0.7825760000002902
 21
12.50000000000023
 31
0.0
  0
LINE
  5
6D97
330
A
100
AcDbEntity
  8
0
  6
Continuous
 62
     7
100
AcDbLine
 10
0.7825760000002902
 20
16.50000000000023
 30
0.0
 11
0.0
 21
16.50000000000023
 31
0.0
  0
ARC
  5
6D98
330
A
100
AcDbEntity
  8
0
  6
Continuous
 62
     7
100
AcDbCircle
 10
-3.800000000000125
 20
14.5
 30
0.0
 40
5.0
100
AcDbArc
 50
0.0
 51
23.57817799999804
  0
ARC
  5
6D99
330
A
100
AcDbEntity
  8
0
  6
Continuous
 62
     7
100
AcDbCircle
 10
-3.800000000000125
 20
14.5
 30
0.0
 40
5.0
100
AcDbArc
 50
336.421822000002
 51
0.0
  0
LINE
  5
6D9A
330
A
100
AcDbEntity
  8
0
  6
Continuous
 62
     7
100
AcDbLine
 10
0.0
 20
61.60000000000025
 30
0.0
 11
0.7825760000002902
 21
61.60000000000025
 31
0.0
  0
LINE
  5
6D9B
330
A
100
AcDbEntity
  8
0
  6
Continuous
 62
     7
100
AcDbLine
 10
0.7825760000002902
 20
65.60000000000025
 30
0.0
 11
0.0
 21
65.60000000000025
 31
0.0
  0
ARC
  5
6D9C
330
A
100
AcDbEntity
  8
0
  6
Continuous
 62
     7
100
AcDbCircle
 10
-3.800000000000125
 20
63.60000000000025
 30
0.0
 40
5.0
100
AcDbArc
 50
0.0
 51
23.57817799999804
  0
ARC
  5
6D9D
330
A
100
AcDbEntity
  8
0
  6
Continuous
 62
     7
100
AcDbCircle
 10
-3.800000000000125
 20
63.60000000000025
 30
0.0
 40
5.0
100
AcDbArc
 50
336.421822000002
 51
0.0
  0
LINE
  5
6D9E
330
A
100
AcDbEntity
  8
0
  6
Continuous
 62
     7
100
AcDbLine
 10
0.7825760000002902
 20
65.69999999999993
 30
0.0
 11
0.0
 21
65.69999999999993
 31
0.0
  0
ARC
  5
6D9F
330
A
100
AcDbEntity
  8
0
  6
Continuous
 62
     7
100
AcDbCircle
 10
-3.800000000000125
 20
63.69999999999993
 30
0.0
 40
5.0
100
AcDbArc
 50
0.0
 51
23.57817799999804
  0
ARC
  5
6DA0
330
A
100
AcDbEntity
  8
0
  6
Continuous
 62
     7
100
AcDbCircle
 10
-3.800000000000125
 20
63.69999999999993
 30
0.0
 40
5.0
100
AcDbArc
 50
359.4267199999972
 51
0.0
  0
LINE
  5
6DA1
330
A
100
AcDbEntity
  8
0
  6
Continuous
 62
     7
100
AcDbLine
 10
0.0
 20
12.4000000000002
 30
0.0
 11
0.7825760000002902
 21
12.4000000000002
 31
0.0
  0
ARC
  5
6DA2
330
A
100
AcDbEntity
  8
0
  6
Continuous
 62
     7
100
AcDbCircle
 10
-3.800000000000125
 20
14.4000000000002
 30
0.0
 40
5.0
100
AcDbArc
 50
0.0
 51
0.5732789999968836
  0
ARC
  5
6DA3
330
A
100
AcDbEntity
  8
0
  6
Continuous
 62
     7
100
AcDbCircle
 10
-3.800000000000125
 20
14.4000000000002
 30
0.0
 40
5.0
100
AcDbArc
 50
336.421822000002
 51
0.0
  0
LINE
  5
6DA4
330
A
100
AcDbEntity
  8
0
  6
Continuous
 62
     7
100
AcDbLine
 10
2.0
 20
69.00000000000023
 30
0.0
 11
2.0
 21
9.000000000000227
 31
0.0
  0
LINE
  5
6DA5
330
A
100
AcDbEntity
  8
0
  6
Continuous
 62
     7
100
AcDbLine
 10
5.626262000000167
 20
9.000000000000227
 30
0.0
 11
7.0
 21
8.500000000000227
 31
0.0
  0
LINE
  5
6DA6
330
A
100
AcDbEntity
  8
0
  6
Continuous
 62
     7
100
AcDbLine
 10
26.0
 20
8.500000000000227
 30
0.0
 11
27.37373900000023
 21
9.000000000000227
 31
0.0
  0
LINE
  5
6DA7
330
A
100
AcDbEntity
  8
0
  6
Continuous
 62
     7
100
AcDbLine
 10
27.37373900000023
 20
69.00000000000023
 30
0.0
 11
26.0
 21
69.50000000000023
 31
0.0
  0
LINE
  5
6DA8
330
A
100
AcDbEntity
  8
0
  6
Continuous
 62
     7
100
AcDbLine
 10
7.0
 20
69.50000000000023
 30
0.0
 11
5.626262000000167
 21
69.00000000000023
 31
0.0
  0
TEXT
  5
72A2
330
A
100
AcDbEntity
  8
0
  6
Continuous
 62
     7
370
     0
100
AcDbText
 10
74.07867113616418
 20
144.0323206442168
 30
0.0
 40
10.0
  1
8011
100
AcDbText
  0
LINE
  5
7814
330
A
100
AcDbEntity
  8
0
  6
CENTER
 62
     1
100
AcDbLine
 10
50.0
 20
-3.0
 30
0.0
 11
13.85640646055106
 21
-3.0
 31
0.0
  0
LINE
  5
7815
330
A
100
AcDbEntity
  8
0
  6
CENTER
 62
     1
100
AcDbLine
 10
50.0
 20
81.0
 30
0.0
 11
13.85640646055106
 21
81.0
 31
0.0
  0
ARC
  5
7816
330
A
100
AcDbEntity
  8
0
  6
CENTER
 62
     1
100
AcDbCircle
 10
0.0
 20
78.0
 30
0.0
 40
11.0
100
AcDbArc
 50
30.00000000000055
 51
180.0
  0
ARC
  5
7817
330
A
100
AcDbEntity
  8
0
  6
CENTER
 62
     1
100
AcDbCircle
 10
13.85640646055106
 20
86.0
 30
0.0
 40
5.0
100
AcDbArc
 50
210.0000000000005
 51
270.0
  0
ARC
  5
7818
330
A
100
AcDbEntity
  8
0
  6
CENTER
 62
     1
100
AcDbCircle
 10
0.0
 20
0.0
 30
0.0
 40
11.0
100
AcDbArc
 50
180.0
 51
329.9999999999995
  0
ARC
  5
7819
330
A
100
AcDbEntity
  8
0
  6
CENTER
 62
     1
100
AcDbCircle
 10
13.85640646055106
 20
-8.0
 30
0.0
 40
5.0
100
AcDbArc
 50
90.0
 51
149.9999999999994
  0
LINE
  5
781A
330
A
100
AcDbEntity
  8
0
  6
CENTER
 62
     1
100
AcDbLine
 10
-11.0
 20
0.0
 30
0.0
 11
-11.0
 21
78.0
 31
0.0
  0
LINE
  5
781B
330
A
100
AcDbEntity
  8
0
  6
CENTER
 62
     1
100
AcDbLine
 10
-15.0
 20
78.0
 30
0.0
 11
15.0
 21
78.0
 31
0.0
  0
LINE
  5
781C
330
A
100
AcDbEntity
  8
0
  6
CENTER
 62
     1
100
AcDbLine
 10
0.0
 20
63.0
 30
0.0
 11
0.0
 21
93.0
 31
0.0
  0
LINE
  5
781D
330
A
100
AcDbEntity
  8
0
  6
CENTER
 62
     1
100
AcDbLine
 10
-15.0
 20
0.0
 30
0.0
 11
15.0
 21
0.0
 31
0.0
  0
LINE
  5
781E
330
A
100
AcDbEntity
  8
0
  6
CENTER
 62
     1
100
AcDbLine
 10
0.0
 20
-15.0
 30
0.0
 11
0.0
 21
15.0
 31
0.0
  0
ENDSEC
  0
SECTION
  2
OBJECTS
  0
DICTIONARY
  5
19
330
0
100
AcDbDictionary
281
     1
  3
ACAD_COLOR
350
3988
  3
ACAD_GROUP
350
1A
  3
ACAD_LAYOUT
350
1E
  3
ACAD_MATERIAL
350
395E
  3
ACAD_MLEADERSTYLE
350
39AD
  3
ACAD_MLINESTYLE
350
1B
  3
ACAD_PLOTSETTINGS
350
22
  3
ACAD_PLOTSTYLENAME
350
1F
  3
ACAD_SCALELIST
350
398B
  3
ACAD_TABLESTYLE
350
3989
  3
ACAD_VISUALSTYLE
350
3977
  3
ACAD_WIPEOUT_VARS
350
23
  3
ACDB_RECOMPOSE_DATA
350
72EC
  3
AcDbVariableDictionary
350
72CB
  3
ASE_INDEX_DICTIONARY
350
72C6
  3
DWGPROPS
350
7844
  0
DICTIONARY
  5
72C9
330
14
100
AcDbDictionary
280
     1
281
     1
  3
ADSK_XREC_LAYER_RECONCILED
360
72CA
  0
DICTIONARY
  5
39B7
330
A
100
AcDbDictionary
280
     1
281
     1
  3
ACAD_SORTENTS
360
39B8
  0
DICTIONARY
  5
3988
102
{ACAD_REACTORS
330
19
102
}
330
19
100
AcDbDictionary
281
     1
  0
DICTIONARY
  5
1A
102
{ACAD_REACTORS
330
19
102
}
330
19
100
AcDbDictionary
281
     1
  0
DICTIONARY
  5
1E
102
{ACAD_REACTORS
330
19
102
}
330
19
100
AcDbDictionary
281
     1
  3
Layout1
350
21
  3
Model
350
20
  0
DICTIONARY
  5
395E
102
{ACAD_REACTORS
330
19
102
}
330
19
100
AcDbDictionary
281
     1
  3
ByBlock
350
3967
  3
ByLayer
350
395F
  3
Global
350
396F
  0
DICTIONARY
  5
39AD
102
{ACAD_REACTORS
330
19
102
}
330
19
100
AcDbDictionary
281
     1
  3
Standard
350
39AE
  0
DICTIONARY
  5
1B
102
{ACAD_REACTORS
330
19
102
}
330
19
100
AcDbDictionary
281
     1
  3
Standard
350
1C
  0
DICTIONARY
  5
22
102
{ACAD_REACTORS
330
19
102
}
330
19
100
AcDbDictionary
281
     1
  0
ACDBDICTIONARYWDFLT
  5
1F
102
{ACAD_REACTORS
330
19
102
}
330
19
100
AcDbDictionary
281
     1
  3
Normal
350
1D
100
AcDbDictionaryWithDefault
340
1D
  0
DICTIONARY
  5
398B
102
{ACAD_REACTORS
330
19
102
}
330
19
100
AcDbDictionary
281
     1
  3
A0
350
398C
  3
A1
350
398D
  3
A2
350
398E
  3
A3
350
398F
  3
A4
350
3990
  3
A5
350
3991
  3
A6
350
3992
  3
A7
350
3993
  3
A8
350
3994
  3
A9
350
3995
  3
B0
350
3996
  3
B1
350
3997
  3
B2
350
3998
  3
B3
350
3999
  3
B4
350
399A
  3
B5
350
399B
  3
B6
350
399C
  3
B7
350
399D
  3
B8
350
399E
  3
B9
350
399F
  3
C0
350
39A0
  3
C1
350
39A1
  3
C2
350
39A2
  3
C3
350
39A3
  3
C4
350
39A4
  3
C5
350
39A5
  3
C6
350
39A6
  3
C7
350
39A7
  3
C8
350
39A8
  3
C9
350
39A9
  3
D0
350
39AA
  3
D1
350
39AB
  3
D2
350
39AC
  0
DICTIONARY
  5
3989
102
{ACAD_REACTORS
330
19
102
}
330
19
100
AcDbDictionary
281
     1
  3
Standard
350
398A
  0
DICTIONARY
  5
3977
102
{ACAD_REACTORS
330
19
102
}
330
19
100
AcDbDictionary
281
     1
  3
2dWireframe
350
397D
  3
3D Hidden
350
397F
  3
3dWireframe
350
397E
  3
Basic
350
397C
  3
Brighten
350
3983
  3
ColorChange
350
3987
  3
Conceptual
350
3980
  3
Dim
350
3982
  3
Facepattern
350
3986
  3
Flat
350
3978
  3
FlatWithEdges
350
3979
  3
Gouraud
350
397A
  3
GouraudWithEdges
350
397B
  3
Linepattern
350
3985
  3
Realistic
350
3981
  3
Thicken
350
3984
  0
WIPEOUTVARIABLES
  5
23
330
19
100
AcDbWipeoutVariables
 70
     1
  0
XRECORD
  5
72EC
102
{ACAD_REACTORS
330
19
102
}
330
19
100
AcDbXrecord
280
     1
 90
        1
330
398A
  0
DICTIONARY
  5
72CB
102
{ACAD_REACTORS
330
19
102
}
330
19
100
AcDbDictionary
281
     1
  3
CANNOSCALE
350
72CE
  3
CMLEADERSTYLE
350
72CD
  3
CTABLESTYLE
350
72CC
  3
DIMASSOC
350
72D1
  3
INDEXCTL
350
72D0
  3
SORTENTS
350
72CF
  0
DICTIONARY
  5
72C6
102
{ACAD_REACTORS
330
19
102
}
330
19
100
AcDbDictionary
281
     1
  3
ASEBlockHierarchyIndexRecord
350
72C8
1001
DCO15
1040
1687090590.691
  0
XRECORD
  5
7844
102
{ACAD_REACTORS
330
19
102
}
330
19
100
AcDbXrecord
280
     1
  1
DWGPROPS COOKIE
  2

  3

  4

  6

  7

  8
renzo.ceresoli
  9

300
=
301
=
302
=
303
=
304
=
305
=
306
=
307
=
308
=
309
=
 40
0.0260581134259259
 41
2455329.702198484
 42
2455336.495168715
  1

 90
        0
  0
XRECORD
  5
72CA
102
{ACAD_REACTORS
330
72C9
102
}
330
72C9
100
AcDbXrecord
280
     1
290
     1
  0
SORTENTSTABLE
  5
39B8
102
{ACAD_REACTORS
330
39B7
102
}
330
39B7
100
AcDbSortentsTable
330
A
331
6C73
  5
3C3A
331
6CA6
  5
3BE5
331
6B8E
  5
3D27
331
6BC1
  5
3D5A
331
6BEC
  5
3D85
331
6CF1
  5
3C30
331
6D24
  5
3B98
331
6C3F
  5
3C98
331
6C45
  5
3C9E
331
6B60
  5
3CED
331
6B93
  5
3D2C
331
6D6F
  5
3B31
331
6DA2
  5
3B64
331
6C98
  5
3BD7
331
6CC3
  5
3C02
331
6BDE
  5
3D77
331
6C11
  5
3C6A
331
6D16
  5
3B8A
331
6D41
  5
3BB5
331
6D74
  5
3B36
331
6C6A
  5
3CC3
331
569
  5
3DB1
331
6B85
  5
3D1E
331
6BB8
  5
3D51
331
6CE8
  5
3C27
331
6D1B
  5
3B8F
331
6C03
  5
3C5C
331
6C36
  5
3C8F
331
6B57
  5
3CDF
331
6D66
  5
3B28
331
6D99
  5
3B5B
331
6C5C
  5
3CB5
331
6C8F
  5
3BCE
331
6CBA
  5
3BF9
331
6BAA
  5
3D43
331
6BD5
  5
3D6E
331
6C08
  5
3C61
331
6D0D
  5
3B81
331
6D38
  5
3BAC
331
6C61
  5
3CBA
331
560
  5
3DA8
331
6B7C
  5
3D15
331
6D8B
  5
3B4D
331
6CB4
  5
3BF3
331
6CDF
  5
3C1E
331
6BFA
  5
3D93
331
6C2D
  5
3C86
331
6D5D
  5
3B1F
331
6D90
  5
3B52
331
6C53
  5
3CAC
331
6C86
  5
3C4D
331
55A
  5
3DA2
331
6B6E
  5
3D07
331
6BA1
  5
3D3A
331
6BCC
  5
3D65
331
6CD1
  5
3C10
331
6D04
  5
3B78
331
6C1F
  5
3C78
331
6B48
  5
3CD0
331
6B73
  5
3D0C
331
6D4F
  5
3BC3
331
6D82
  5
3B44
331
6C78
  5
3C3F
331
6CAB
  5
3BEA
331
6BC6
  5
3D5F
331
6BF1
  5
3D8A
331
6CF6
  5
3C35
331
6D29
  5
3B9D
331
6D54
  5
3BC8
331
6C4A
  5
3CA3
331
6B65
  5
3CF2
331
6B98
  5
3D31
331
6DA7
  5
3B69
331
6C9D
  5
3BDC
331
6CC8
  5
3C07
331
6CFB
  5
3B6F
331
6BE3
  5
3D7C
331
6C16
  5
3C6F
331
6D46
  5
3BBA
331
6D79
  5
3B3B
331
6C6F
  5
3C36
331
6CA2
  5
3BE1
331
6B8A
  5
3D23
331
6BBD
  5
3D56
331
6BE8
  5
3D81
331
6CED
  5
3C2C
331
6D20
  5
3B94
331
6C3B
  5
3C94
331
6C41
  5
3C9A
331
6B5C
  5
3CE9
331
6D6B
  5
3B2D
331
6D9E
  5
3B60
331
6C94
  5
3BD3
331
6CBF
  5
3BFE
331
6BAF
  5
3D48
331
6BDA
  5
3D73
331
6C0D
  5
3C66
331
6D12
  5
3B86
331
6D3D
  5
3BB1
331
6D70
  5
3B32
331
6C66
  5
3CBF
331
565
  5
3DAD
331
6B81
  5
3D1A
331
6BB4
  5
3D4D
331
6CE4
  5
3C23
331
6BFF
  5
3C58
331
6C32
  5
3C8B
331
6B53
  5
3CDB
331
6D62
  5
3B24
331
6D95
  5
3B57
331
6C58
  5
3CB1
331
6C8B
  5
3C52
331
55F
  5
3DA7
331
6BA6
  5
3D3F
331
6BD1
  5
3D6A
331
6CD6
  5
3C15
331
6D09
  5
3B7D
331
6D34
  5
3BA8
331
6C24
  5
3C7D
331
6B4D
  5
3CD5
331
6B78
  5
3D11
331
6D87
  5
3B49
331
6C7D
  5
3C44
331
6CB0
  5
3BEF
331
6CDB
  5
3C1A
331
6BF6
  5
3D8F
331
6C29
  5
3C82
331
6D2E
  5
3BA2
331
6D59
  5
3B1B
331
6C4F
  5
3CA8
331
6C82
  5
3C49
331
556
  5
3D9E
331
6B6A
  5
3D03
331
6B9D
  5
3D36
331
6BC8
  5
3D61
331
6CCD
  5
3C0C
331
6D00
  5
3B74
331
6C1B
  5
3C74
331
6B44
  5
3CCC
331
6D4B
  5
3BBF
331
6D7E
  5
3B40
331
6C74
  5
3C3B
331
6CA7
  5
3BE6
331
6B8F
  5
3D28
331
6BC2
  5
3D5B
331
6BED
  5
3D86
331
6CF2
  5
3C31
331
6D25
  5
3B99
331
6D50
  5
3BC4
331
6C46
  5
3C9F
331
6B61
  5
3CEE
331
6B94
  5
3D2D
331
6DA3
  5
3B65
331
6C99
  5
3BD8
331
6CC4
  5
3C03
331
6BDF
  5
3D78
331
6C12
  5
3C6B
331
6D17
  5
3B8B
331
6D42
  5
3BB6
331
6D75
  5
3B37
331
6C6B
  5
3CC4
331
56A
  5
3DB2
331
6B86
  5
3D1F
331
6BB9
  5
3D52
331
6CE9
  5
3C28
331
6D1C
  5
3B90
331
6C04
  5
3C5D
331
6C37
  5
3C90
331
6B58
  5
3CE0
331
6D67
  5
3B29
331
6D9A
  5
3B5C
331
6C5D
  5
3CB6
331
6C90
  5
3BCF
331
6CBB
  5
3BFA
331
6BAB
  5
3D44
331
6BD6
  5
3D6F
331
6C09
  5
3C62
331
6D0E
  5
3B82
331
6D39
  5
3BAD
331
6C62
  5
3CBB
331
561
  5
3DA9
331
6B7D
  5
3D16
331
6BB0
  5
3D49
331
6D8C
  5
3B4E
331
6CB5
  5
3BF4
331
6CE0
  5
3C1F
331
6BFB
  5
3D94
331
6C2E
  5
3C87
331
6D5E
  5
3B20
331
6D91
  5
3B53
331
6C54
  5
3CAD
331
6C87
  5
3C4E
331
55B
  5
3DA3
331
6B6F
  5
3D08
331
6BA2
  5
3D3B
331
6BCD
  5
3D66
331
6CD2
  5
3C11
331
6D05
  5
3B79
331
6D30
  5
3BA4
331
6C20
  5
3C79
331
6B49
  5
3CD1
331
6B74
  5
3D0D
331
6D83
  5
3B45
331
6C79
  5
3C40
331
6CAC
  5
3BEB
331
6BC7
  5
3D60
331
6BF2
  5
3D8B
331
6CF7
  5
3B6B
331
6D2A
  5
3B9E
331
6D55
  5
3BC9
331
6C4B
  5
3CA4
331
6B66
  5
3CF3
331
6B99
  5
3D32
331
6C9E
  5
3BDD
331
6CC9
  5
3C08
331
6CFC
  5
3B70
331
6BE4
  5
3D7D
331
6C17
  5
3C70
331
6B40
  5
3CC8
331
6D47
  5
3BBB
331
6D7A
  5
3B3C
331
6C70
  5
3C37
331
6CA3
  5
3BE2
331
6B8B
  5
3D24
331
6BBE
  5
3D57
331
6BE9
  5
3D82
331
6CEE
  5
3C2D
331
6D21
  5
3B95
331
6C3C
  5
3C95
331
6C42
  5
3C9B
331
6B5D
  5
3CEA
331
6B90
  5
3D29
331
6D6C
  5
3B2E
331
6D9F
  5
3B61
331
6C95
  5
3BD4
331
6CC0
  5
3BFF
331
6BDB
  5
3D74
331
6C0E
  5
3C67
331
6D13
  5
3B87
331
6D3E
  5
3BB2
331
6D71
  5
3B33
331
6C67
  5
3CC0
331
566
  5
3DAE
331
6B82
  5
3D1B
331
6BB5
  5
3D4E
331
6CE5
  5
3C24
331
6D18
  5
3B8C
331
6C00
  5
3C59
331
6C33
  5
3C8C
331
6B54
  5
3CDC
331
6D63
  5
3B25
331
6D96
  5
3B58
331
6C59
  5
3CB2
331
6C8C
  5
3C53
331
6BA7
  5
3D40
331
6BD2
  5
3D6B
331
6CD7
  5
3C16
331
6D0A
  5
3B7E
331
6D35
  5
3BA9
331
6C25
  5
3C7E
331
6B4E
  5
3CD6
331
6B79
  5
3D12
331
6D88
  5
3B4A
331
6C7E
  5
3C45
331
6CB1
  5
3BF0
331
6CDC
  5
3C1B
331
6BF7
  5
3D90
331
6C2A
  5
3C83
331
6D2F
  5
3BA3
331
6D5A
  5
3B1C
331
6C50
  5
3CA9
331
6C83
  5
3C4A
331
557
  5
3D9F
331
6B6B
  5
3D04
331
6B9E
  5
3D37
331
6BC9
  5
3D62
331
6CCE
  5
3C0D
331
6D01
  5
3B75
331
6C1C
  5
3C75
331
6B45
  5
3CCD
331
6B70
  5
3D09
331
6D4C
  5
3BC0
331
6D7F
  5
3B41
331
6C75
  5
3C3C
331
6CA8
  5
3BE7
331
6BC3
  5
3D5C
331
6BEE
  5
3D87
331
6CF3
  5
3C32
331
6D26
  5
3B9A
331
6D51
  5
3BC5
331
6C47
  5
3CA0
331
6B62
  5
3CEF
331
6B95
  5
3D2E
331
6DA4
  5
3B66
331
6C9A
  5
3BD9
331
6CC5
  5
3C04
331
6CF8
  5
3B6C
331
6BE0
  5
3D79
331
6C13
  5
3C6C
331
6D43
  5
3BB7
331
6D76
  5
3B38
331
6C6C
  5
3CC5
331
56B
  5
3DB3
331
6B87
  5
3D20
331
6BBA
  5
3D53
331
6CEA
  5
3C29
331
6D1D
  5
3B91
331
6C05
  5
3C5E
331
6C38
  5
3C91
331
6B59
  5
3CE1
331
6D68
  5
3B2A
331
6D9B
  5
3B5D
331
6C5E
  5
3CB7
331
6C91
  5
3BD0
331
6CBC
  5
3BFB
331
6BAC
  5
3D45
331
6BD7
  5
3D70
331
6C0A
  5
3C63
331
6D0F
  5
3B83
331
6D3A
  5
3BAE
331
6C63
  5
3CBC
331
562
  5
3DAA
331
6B7E
  5
3D17
331
6BB1
  5
3D4A
331
6D8D
  5
3B4F
331
6CB6
  5
3BF5
331
6CE1
  5
3C20
331
6BFC
  5
3C55
331
6C2F
  5
3C88
331
6B50
  5
3CD8
331
6D5F
  5
3B21
331
6D92
  5
3B54
331
6C55
  5
3CAE
331
6C88
  5
3C4F
331
55C
  5
3DA4
331
6BA3
  5
3D3C
331
6BCE
  5
3D67
331
6CD3
  5
3C12
331
6D06
  5
3B7A
331
6D31
  5
3BA5
331
6C21
  5
3C7A
331
6B4A
  5
3CD2
331
6B75
  5
3D0E
331
6D84
  5
3B46
331
6C7A
  5
3C41
331
6CAD
  5
3BEC
331
6CD8
  5
3C17
331
6BF3
  5
3D8C
331
6D2B
  5
3B9F
331
6D56
  5
3BCA
331
6C4C
  5
3CA5
331
553
  5
3D9B
331
6B67
  5
3D00
331
6B9A
  5
3D33
331
6C9F
  5
3BDE
331
6CCA
  5
3C09
331
6CFD
  5
3B71
331
6BE5
  5
3D7E
331
6C18
  5
3C71
331
6B41
  5
3CC9
331
6D48
  5
3BBC
331
6D7B
  5
3B3D
331
6C71
  5
3C38
331
6CA4
  5
3BE3
331
6B8C
  5
3D25
331
6BBF
  5
3D58
331
6BEA
  5
3D83
331
6CEF
  5
3C2E
331
6D22
  5
3B96
331
6C3D
  5
3C96
331
6C43
  5
3C9C
331
6B5E
  5
3CEB
331
6B91
  5
3D2A
331
6D6D
  5
3B2F
331
6DA0
  5
3B62
331
6C96
  5
3BD5
331
6CC1
  5
3C00
331
6BDC
  5
3D75
331
6C0F
  5
3C68
331
6D14
  5
3B88
331
6D3F
  5
3BB3
331
6D72
  5
3B34
331
6C68
  5
3CC1
331
567
  5
3DAF
331
6B83
  5
3D1C
331
6BB6
  5
3D4F
331
6CE6
  5
3C25
331
6D19
  5
3B8D
331
6C01
  5
3C5A
331
6C34
  5
3C8D
331
6B55
  5
3CDD
331
6D64
  5
3B26
331
6D97
  5
3B59
331
6C5A
  5
3CB3
331
6C8D
  5
3C54
331
6CB8
  5
3BF7
331
6BA8
  5
3D41
331
6BD3
  5
3D6C
331
6D0B
  5
3B7F
331
6D36
  5
3BAA
331
6C26
  5
3C7F
331
6B4F
  5
3CD7
331
6B7A
  5
3D13
331
6D89
  5
3B4B
331
6C7F
  5
3C46
331
6CB2
  5
3BF1
331
6CDD
  5
3C1C
331
6BF8
  5
3D91
331
6C2B
  5
3C84
331
6D5B
  5
3B1D
331
6C51
  5
3CAA
331
6C84
  5
3C4B
331
558
  5
3DA0
331
6B6C
  5
3D05
331
6B9F
  5
3D38
331
6BCA
  5
3D63
331
6CCF
  5
3C0E
331
6D02
  5
3B76
331
6C1D
  5
3C76
331
6B46
  5
3CCE
331
6B71
  5
3D0A
331
6D4D
  5
3BC1
331
6D80
  5
3B42
331
6C76
  5
3C3D
331
6CA9
  5
3BE8
331
6BC4
  5
3D5D
331
6BEF
  5
3D88
331
6CF4
  5
3C33
331
6D27
  5
3B9B
331
6D52
  5
3BC6
331
6C48
  5
3CA1
331
6B63
  5
3CF0
331
6B96
  5
3D2F
331
6DA5
  5
3B67
331
6C9B
  5
3BDA
331
6CC6
  5
3C05
331
6CF9
  5
3B6D
331
6BE1
  5
3D7A
331
6C14
  5
3C6D
331
6D44
  5
3BB8
331
6D77
  5
3B39
331
6C6D
  5
3CC6
331
6CA0
  5
3BDF
331
6B88
  5
3D21
331
6BBB
  5
3D54
331
6CEB
  5
3C2A
331
6D1E
  5
3B92
331
6C06
  5
3C5F
331
6C39
  5
3C92
331
6B5A
  5
3CE7
331
6D69
  5
3B2B
331
6D9C
  5
3B5E
331
6C5F
  5
3CB8
331
6C92
  5
3BD1
331
6CBD
  5
3BFC
331
6BAD
  5
3D46
331
6BD8
  5
3D71
331
6C0B
  5
3C64
331
6D10
  5
3B84
331
6D3B
  5
3BAF
331
6C64
  5
3CBD
331
563
  5
3DAB
331
6B7F
  5
3D18
331
6BB2
  5
3D4B
331
6D8E
  5
3B50
331
6CB7
  5
3BF6
331
6CE2
  5
3C21
331
6BFD
  5
3C56
331
6C30
  5
3C89
331
6B51
  5
3CD9
331
6D60
  5
3B22
331
6D93
  5
3B55
331
6C56
  5
3CAF
331
6C89
  5
3C50
331
55D
  5
3DA5
331
6BA4
  5
3D3D
331
6BCF
  5
3D68
331
6CD4
  5
3C13
331
6D07
  5
3B7B
331
6D32
  5
3BA6
331
6C22
  5
3C7B
331
6B4B
  5
3CD3
331
6B76
  5
3D0F
331
6D85
  5
3B47
331
6C7B
  5
3C42
331
6CAE
  5
3BED
331
6CD9
  5
3C18
331
6BF4
  5
3D8D
331
6D2C
  5
3BA0
331
6D57
  5
3BCB
331
6C4D
  5
3CA6
331
6C80
  5
3C47
331
554
  5
3D9C
331
6B68
  5
3D01
331
6B9B
  5
3D34
331
6CCB
  5
3C0A
331
6CFE
  5
3B72
331
6BE6
  5
3D7F
331
6C19
  5
3C72
331
6B42
  5
3CCA
331
6D49
  5
3BBD
331
6D7C
  5
3B3E
331
6C72
  5
3C39
331
6CA5
  5
3BE4
331
6B8D
  5
3D26
331
6BC0
  5
3D59
331
6BEB
  5
3D84
331
6CF0
  5
3C2F
331
6D23
  5
3B97
331
6C3E
  5
3C97
331
6C44
  5
3C9D
331
6B5F
  5
3CEC
331
6B92
  5
3D2B
331
6D6E
  5
3B30
331
6DA1
  5
3B63
331
6C97
  5
3BD6
331
6CC2
  5
3C01
331
6BDD
  5
3D76
331
6C10
  5
3C69
331
6D15
  5
3B89
331
6D40
  5
3BB4
331
6D73
  5
3B35
331
6C69
  5
3CC2
331
568
  5
3DB0
331
6B84
  5
3D1D
331
6BB7
  5
3D50
331
6CE7
  5
3C26
331
6D1A
  5
3B8E
331
6C02
  5
3C5B
331
6C35
  5
3C8E
331
6B56
  5
3CDE
331
6D65
  5
3B27
331
6D98
  5
3B5A
331
6C5B
  5
3CB4
331
6C8E
  5
3BCD
331
6CB9
  5
3BF8
331
6BA9
  5
3D42
331
6BD4
  5
3D6D
331
6D0C
  5
3B80
331
6D37
  5
3BAB
331
6C27
  5
3C80
331
6C60
  5
3CB9
331
6B7B
  5
3D14
331
6D8A
  5
3B4C
331
6CB3
  5
3BF2
331
6CDE
  5
3C1D
331
6BF9
  5
3D92
331
6C2C
  5
3C85
331
6D5C
  5
3B1E
331
6C52
  5
3CAB
331
6C85
  5
3C4C
331
559
  5
3DA1
331
6B6D
  5
3D06
331
6BA0
  5
3D39
331
6BCB
  5
3D64
331
6CD0
  5
3C0F
331
6D03
  5
3B77
331
6C1E
  5
3C77
331
6B47
  5
3CCF
331
6B72
  5
3D0B
331
6D4E
  5
3BC2
331
6D81
  5
3B43
331
6C77
  5
3C3E
331
6CAA
  5
3BE9
331
6BC5
  5
3D5E
331
6BF0
  5
3D89
331
6CF5
  5
3C34
331
6D28
  5
3B9C
331
6D53
  5
3BC7
331
6C49
  5
3CA2
331
6B64
  5
3CF1
331
6B97
  5
3D30
331
6DA6
  5
3B68
331
6C9C
  5
3BDB
331
6CC7
  5
3C06
331
6CFA
  5
3B6E
331
6BE2
  5
3D7B
331
6C15
  5
3C6E
331
6D45
  5
3BB9
331
6D78
  5
3B3A
331
6C6E
  5
3CC7
331
6CA1
  5
3BE0
331
6B89
  5
3D22
331
6BBC
  5
3D55
331
6CEC
  5
3C2B
331
6D1F
  5
3B93
331
6C07
  5
3C60
331
6C3A
  5
3C93
331
6C40
  5
3C99
331
6B5B
  5
3CE8
331
6D6A
  5
3B2C
331
6D9D
  5
3B5F
331
6C93
  5
3BD2
331
6CBE
  5
3BFD
331
6BAE
  5
3D47
331
6BD9
  5
3D72
331
6C0C
  5
3C65
331
6D11
  5
3B85
331
6D3C
  5
3BB0
331
6C65
  5
3CBE
331
564
  5
3DAC
331
6B80
  5
3D19
331
6BB3
  5
3D4C
331
6D8F
  5
3B51
331
6CE3
  5
3C22
331
6BFE
  5
3C57
331
6C31
  5
3C8A
331
6B52
  5
3CDA
331
6D61
  5
3B23
331
6D94
  5
3B56
331
6C57
  5
3CB0
331
6C8A
  5
3C51
331
55E
  5
3DA6
331
6BA5
  5
3D3E
331
6BD0
  5
3D69
331
6CD5
  5
3C14
331
6D08
  5
3B7C
331
6D33
  5
3BA7
331
6C23
  5
3C7C
331
6B4C
  5
3CD4
331
6B77
  5
3D10
331
6D86
  5
3B48
331
6C7C
  5
3C43
331
6CAF
  5
3BEE
331
6CDA
  5
3C19
331
6BF5
  5
3D8E
331
6C28
  5
3C81
331
6D2D
  5
3BA1
331
6D58
  5
3BCC
331
6C4E
  5
3CA7
331
6C81
  5
3C48
331
555
  5
3D9D
331
6B69
  5
3D02
331
6B9C
  5
3D35
331
6CCC
  5
3C0B
331
6CFF
  5
3B73
331
6BE7
  5
3D80
331
6C1A
  5
3C73
331
6B43
  5
3CCB
331
6D4A
  5
3BBE
331
6D7D
  5
3B3F
331
6DA8
  5
3B6A
  0
LAYOUT
  5
21
102
{ACAD_XDICTIONARY
360
7847
102
}
102
{ACAD_REACTORS
330
1E
102
}
330
1E
100
AcDbPlotSettings
  1

  2

  4

  6

 40
0.0
 41
0.0
 42
0.0
 43
0.0
 44
0.0
 45
0.0
 46
0.0
 47
0.0
 48
0.0
 49
0.0
140
0.0
141
0.0
142
1.0
143
1.0
 70
     0
 72
     0
 73
     0
 74
     0
  7

 75
     0
147
1.0
148
0.0
149
0.0
100
AcDbLayout
  1
Layout1
 70
     0
 71
     1
 10
0.0
 20
0.0
 11
12.0
 21
9.0
 12
0.0
 22
0.0
 32
0.0
 14
1.000000000000000E+20
 24
1.000000000000000E+20
 34
1.000000000000000E+20
 15
-1.000000000000000E+20
 25
-1.000000000000000E+20
 35
-1.000000000000000E+20
146
0.0
 13
0.0
 23
0.0
 33
0.0
 16
1.0
 26
0.0
 36
0.0
 17
0.0
 27
1.0
 37
0.0
 76
     0
330
B
  0
LAYOUT
  5
20
102
{ACAD_XDICTIONARY
360
7845
102
}
102
{ACAD_REACTORS
330
1E
102
}
330
1E
100
AcDbPlotSettings
  1

  2

  4

  6

 40
0.0
 41
0.0
 42
0.0
 43
0.0
 44
0.0
 45
0.0
 46
0.0
 47
0.0
 48
0.0
 49
0.0
140
0.0
141
0.0
142
1.0
143
1.0
 70
  1024
 72
     0
 73
     0
 74
     0
  7

 75
     0
147
1.0
148
0.0
149
0.0
100
AcDbLayout
  1
Model
 70
     0
 71
     0
 10
0.0
 20
0.0
 11
0.0
 21
0.0
 12
0.0
 22
0.0
 32
0.0
 14
0.0
 24
0.0
 34
0.0
 15
0.0
 25
0.0
 35
0.0
146
0.0
 13
0.0
 23
0.0
 33
0.0
 16
0.0
 26
0.0
 36
0.0
 17
0.0
 27
0.0
 37
0.0
 76
     0
330
A
331
15
  0
MATERIAL
  5
3967
102
{ACAD_XDICTIONARY
360
3968
102
}
102
{ACAD_REACTORS
330
395E
102
}
330
395E
100
AcDbMaterial
  1
ByBlock
 72
     0
 43
0.0208333333333333
 43
0.0
 43
0.0
 43
0.0
 43
0.0
 43
0.0208333333333333
 43
0.0
 43
0.0
 43
0.0
 43
0.0
 43
1.0
 43
0.0
 43
0.0
 43
0.0
 43
0.0
 43
1.0
 77
     0
 47
0.0208333333333333
 47
0.0
 47
0.0
 47
0.0
 47
0.0
 47
0.0208333333333333
 47
0.0
 47
0.0
 47
0.0
 47
0.0
 47
1.0
 47
0.0
 47
0.0
 47
0.0
 47
0.0
 47
1.0
171
     0
 49
0.0208333333333333
 49
0.0
 49
0.0
 49
0.0
 49
0.0
 49
0.0208333333333333
 49
0.0
 49
0.0
 49
0.0
 49
0.0
 49
1.0
 49
0.0
 49
0.0
 49
0.0
 49
0.0
 49
1.0
175
     0
142
0.0208333333333333
142
0.0
142
0.0
142
0.0
142
0.0
142
0.0208333333333333
142
0.0
142
0.0
142
0.0
142
0.0
142
1.0
142
0.0
142
0.0
142
0.0
142
0.0
142
1.0
179
     0
144
0.0208333333333333
144
0.0
144
0.0
144
0.0
144
0.0
144
0.0208333333333333
144
0.0
144
0.0
144
0.0
144
0.0
144
1.0
144
0.0
144
0.0
144
0.0
144
0.0
144
1.0
147
0.0208333333333333
147
0.0
147
0.0
147
0.0
147
0.0
147
0.0208333333333333
147
0.0
147
0.0
147
0.0
147
0.0
147
1.0
147
0.0
147
0.0
147
0.0
147
0.0
147
1.0
  0
MATERIAL
  5
395F
102
{ACAD_XDICTIONARY
360
3960
102
}
102
{ACAD_REACTORS
330
395E
102
}
330
395E
100
AcDbMaterial
  1
ByLayer
 72
     0
 43
0.0208333333333333
 43
0.0
 43
0.0
 43
0.0
 43
0.0
 43
0.0208333333333333
 43
0.0
 43
0.0
 43
0.0
 43
0.0
 43
1.0
 43
0.0
 43
0.0
 43
0.0
 43
0.0
 43
1.0
 77
     0
 47
0.0208333333333333
 47
0.0
 47
0.0
 47
0.0
 47
0.0
 47
0.0208333333333333
 47
0.0
 47
0.0
 47
0.0
 47
0.0
 47
1.0
 47
0.0
 47
0.0
 47
0.0
 47
0.0
 47
1.0
171
     0
 49
0.0208333333333333
 49
0.0
 49
0.0
 49
0.0
 49
0.0
 49
0.0208333333333333
 49
0.0
 49
0.0
 49
0.0
 49
0.0
 49
1.0
 49
0.0
 49
0.0
 49
0.0
 49
0.0
 49
1.0
175
     0
142
0.0208333333333333
142
0.0
142
0.0
142
0.0
142
0.0
142
0.0208333333333333
142
0.0
142
0.0
142
0.0
142
0.0
142
1.0
142
0.0
142
0.0
142
0.0
142
0.0
142
1.0
179
     0
144
0.0208333333333333
144
0.0
144
0.0
144
0.0
144
0.0
144
0.0208333333333333
144
0.0
144
0.0
144
0.0
144
0.0
144
1.0
144
0.0
144
0.0
144
0.0
144
0.0
144
1.0
147
0.0208333333333333
147
0.0
147
0.0
147
0.0
147
0.0
147
0.0208333333333333
147
0.0
147
0.0
147
0.0
147
0.0
147
1.0
147
0.0
147
0.0
147
0.0
147
0.0
147
1.0
  0
MATERIAL
  5
396F
102
{ACAD_XDICTIONARY
360
3970
102
}
102
{ACAD_REACTORS
330
395E
102
}
330
395E
100
AcDbMaterial
  1
Global
 72
     0
 43
0.0208333333333333
 43
0.0
 43
0.0
 43
0.0
 43
0.0
 43
0.0208333333333333
 43
0.0
 43
0.0
 43
0.0
 43
0.0
 43
1.0
 43
0.0
 43
0.0
 43
0.0
 43
0.0
 43
1.0
 77
     0
 47
0.0208333333333333
 47
0.0
 47
0.0
 47
0.0
 47
0.0
 47
0.0208333333333333
 47
0.0
 47
0.0
 47
0.0
 47
0.0
 47
1.0
 47
0.0
 47
0.0
 47
0.0
 47
0.0
 47
1.0
171
     0
 49
0.0208333333333333
 49
0.0
 49
0.0
 49
0.0
 49
0.0
 49
0.0208333333333333
 49
0.0
 49
0.0
 49
0.0
 49
0.0
 49
1.0
 49
0.0
 49
0.0
 49
0.0
 49
0.0
 49
1.0
175
     0
142
0.0208333333333333
142
0.0
142
0.0
142
0.0
142
0.0
142
0.0208333333333333
142
0.0
142
0.0
142
0.0
142
0.0
142
1.0
142
0.0
142
0.0
142
0.0
142
0.0
142
1.0
179
     0
144
0.0208333333333333
144
0.0
144
0.0
144
0.0
144
0.0
144
0.0208333333333333
144
0.0
144
0.0
144
0.0
144
0.0
144
1.0
144
0.0
144
0.0
144
0.0
144
0.0
144
1.0
147
0.0208333333333333
147
0.0
147
0.0
147
0.0
147
0.0
147
0.0208333333333333
147
0.0
147
0.0
147
0.0
147
0.0
147
1.0
147
0.0
147
0.0
147
0.0
147
0.0
147
1.0
  0
MLEADERSTYLE
  5
39AE
102
{ACAD_REACTORS
330
39AD
102
}
330
39AD
100
AcDbMLeaderStyle
170
     2
171
     1
172
     0
 90
        2
 40
0.0
 41
0.0
173
     1
 91
-1056964608
340
11
 92
       -2
290
     1
 42
2.0
291
     1
 43
0.36
  3
Standard
 44
4.0
300

342
17
174
     1
178
     6
175
     1
176
     0
 93
-1056964608
 45
4.0
292
     0
297
     0
 46
4.0
 94
-1056964608
 47
1.0
 49
1.0
140
1.0
293
     1
141
0.0
294
     1
177
     0
142
1.0
295
     0
296
     0
143
0.125
1001
ACAD_MLEADERVER
1070
     2
  0
MLINESTYLE
  5
1C
102
{ACAD_REACTORS
330
1B
102
}
330
1B
100
AcDbMlineStyle
  2
STANDARD
 70
     0
  3

 62
     0
 51
90.0
 52
90.0
 71
     2
 49
0.5
 62
   256
  6
BYLAYER
 49
-0.5
 62
   256
  6
BYLAYER
  0
ACDBPLACEHOLDER
  5
1D
102
{ACAD_REACTORS
330
1F
102
}
330
1F
  0
SCALE
  5
398C
102
{ACAD_REACTORS
330
398B
102
}
330
398B
100
AcDbScale
 70
     0
300
1:1
140
1.0
141
1.0
290
     1
  0
SCALE
  5
398D
102
{ACAD_REACTORS
330
398B
102
}
330
398B
100
AcDbScale
 70
     0
300
1:2
140
1.0
141
2.0
290
     0
  0
SCALE
  5
398E
102
{ACAD_REACTORS
330
398B
102
}
330
398B
100
AcDbScale
 70
     0
300
1:4
140
1.0
141
4.0
290
     0
  0
SCALE
  5
398F
102
{ACAD_REACTORS
330
398B
102
}
330
398B
100
AcDbScale
 70
     0
300
1:5
140
1.0
141
5.0
290
     0
  0
SCALE
  5
3990
102
{ACAD_REACTORS
330
398B
102
}
330
398B
100
AcDbScale
 70
     0
300
1:8
140
1.0
141
8.0
290
     0
  0
SCALE
  5
3991
102
{ACAD_REACTORS
330
398B
102
}
330
398B
100
AcDbScale
 70
     0
300
1:10
140
1.0
141
10.0
290
     0
  0
SCALE
  5
3992
102
{ACAD_REACTORS
330
398B
102
}
330
398B
100
AcDbScale
 70
     0
300
1:16
140
1.0
141
16.0
290
     0
  0
SCALE
  5
3993
102
{ACAD_REACTORS
330
398B
102
}
330
398B
100
AcDbScale
 70
     0
300
1:20
140
1.0
141
20.0
290
     0
  0
SCALE
  5
3994
102
{ACAD_REACTORS
330
398B
102
}
330
398B
100
AcDbScale
 70
     0
300
1:30
140
1.0
141
30.0
290
     0
  0
SCALE
  5
3995
102
{ACAD_REACTORS
330
398B
102
}
330
398B
100
AcDbScale
 70
     0
300
1:40
140
1.0
141
40.0
290
     0
  0
SCALE
  5
3996
102
{ACAD_REACTORS
330
398B
102
}
330
398B
100
AcDbScale
 70
     0
300
1:50
140
1.0
141
50.0
290
     0
  0
SCALE
  5
3997
102
{ACAD_REACTORS
330
398B
102
}
330
398B
100
AcDbScale
 70
     0
300
1:100
140
1.0
141
100.0
290
     0
  0
SCALE
  5
3998
102
{ACAD_REACTORS
330
398B
102
}
330
398B
100
AcDbScale
 70
     0
300
2:1
140
2.0
141
1.0
290
     0
  0
SCALE
  5
3999
102
{ACAD_REACTORS
330
398B
102
}
330
398B
100
AcDbScale
 70
     0
300
4:1
140
4.0
141
1.0
290
     0
  0
SCALE
  5
399A
102
{ACAD_REACTORS
330
398B
102
}
330
398B
100
AcDbScale
 70
     0
300
8:1
140
8.0
141
1.0
290
     0
  0
SCALE
  5
399B
102
{ACAD_REACTORS
330
398B
102
}
330
398B
100
AcDbScale
 70
     0
300
10:1
140
10.0
141
1.0
290
     0
  0
SCALE
  5
399C
102
{ACAD_REACTORS
330
398B
102
}
330
398B
100
AcDbScale
 70
     0
300
100:1
140
100.0
141
1.0
290
     0
  0
SCALE
  5
399D
102
{ACAD_REACTORS
330
398B
102
}
330
398B
100
AcDbScale
 70
     0
300
1/128" = 1'-0"
140
0.0078125
141
12.0
290
     0
  0
SCALE
  5
399E
102
{ACAD_REACTORS
330
398B
102
}
330
398B
100
AcDbScale
 70
     0
300
1/64" = 1'-0"
140
0.015625
141
12.0
290
     0
  0
SCALE
  5
399F
102
{ACAD_REACTORS
330
398B
102
}
330
398B
100
AcDbScale
 70
     0
300
1/32" = 1'-0"
140
0.03125
141
12.0
290
     0
  0
SCALE
  5
39A0
102
{ACAD_REACTORS
330
398B
102
}
330
398B
100
AcDbScale
 70
     0
300
1/16" = 1'-0"
140
0.0625
141
12.0
290
     0
  0
SCALE
  5
39A1
102
{ACAD_REACTORS
330
398B
102
}
330
398B
100
AcDbScale
 70
     0
300
3/32" = 1'-0"
140
0.09375
141
12.0
290
     0
  0
SCALE
  5
39A2
102
{ACAD_REACTORS
330
398B
102
}
330
398B
100
AcDbScale
 70
     0
300
1/8" = 1'-0"
140
0.125
141
12.0
290
     0
  0
SCALE
  5
39A3
102
{ACAD_REACTORS
330
398B
102
}
330
398B
100
AcDbScale
 70
     0
300
3/16" = 1'-0"
140
0.1875
141
12.0
290
     0
  0
SCALE
  5
39A4
102
{ACAD_REACTORS
330
398B
102
}
330
398B
100
AcDbScale
 70
     0
300
1/4" = 1'-0"
140
0.25
141
12.0
290
     0
  0
SCALE
  5
39A5
102
{ACAD_REACTORS
330
398B
102
}
330
398B
100
AcDbScale
 70
     0
300
3/8" = 1'-0"
140
0.375
141
12.0
290
     0
  0
SCALE
  5
39A6
102
{ACAD_REACTORS
330
398B
102
}
330
398B
100
AcDbScale
 70
     0
300
1/2" = 1'-0"
140
0.5
141
12.0
290
     0
  0
SCALE
  5
39A7
102
{ACAD_REACTORS
330
398B
102
}
330
398B
100
AcDbScale
 70
     0
300
3/4" = 1'-0"
140
0.75
141
12.0
290
     0
  0
SCALE
  5
39A8
102
{ACAD_REACTORS
330
398B
102
}
330
398B
100
AcDbScale
 70
     0
300
1" = 1'-0"
140
1.0
141
12.0
290
     0
  0
SCALE
  5
39A9
102
{ACAD_REACTORS
330
398B
102
}
330
398B
100
AcDbScale
 70
     0
300
1-1/2" = 1'-0"
140
1.5
141
12.0
290
     0
  0
SCALE
  5
39AA
102
{ACAD_REACTORS
330
398B
102
}
330
398B
100
AcDbScale
 70
     0
300
3" = 1'-0"
140
3.0
141
12.0
290
     0
  0
SCALE
  5
39AB
102
{ACAD_REACTORS
330
398B
102
}
330
398B
100
AcDbScale
 70
     0
300
6" = 1'-0"
140
6.0
141
12.0
290
     0
  0
SCALE
  5
39AC
102
{ACAD_REACTORS
330
398B
102
}
330
398B
100
AcDbScale
 70
     0
300
1'-0" = 1'-0"
140
12.0
141
12.0
290
     0
  0
TABLESTYLE
  5
398A
102
{ACAD_XDICTIONARY
360
72EA
102
}
102
{ACAD_REACTORS
330
3989
102
}
330
3989
100
AcDbTableStyle
  3
Standard
 70
     0
 71
     0
 40
1.5
 41
1.5
280
     0
281
     0
  7
Standard
140
4.5
170
     2
 62
     0
 63
     7
283
     0
274
    -2
284
     1
 64
     0
275
    -2
285
     1
 65
     0
276
    -2
286
     1
 66
     0
277
    -2
287
     1
 67
     0
278
    -2
288
     1
 68
     0
279
    -2
289
     1
 69
     0
  7
Standard
140
6.0
170
     5
 62
     0
 63
     7
283
     0
274
    -2
284
     1
 64
     0
275
    -2
285
     1
 65
     0
276
    -2
286
     1
 66
     0
277
    -2
287
     1
 67
     0
278
    -2
288
     1
 68
     0
279
    -2
289
     1
 69
     0
  7
Standard
140
4.5
170
     5
 62
     0
 63
     7
283
     0
274
    -2
284
     1
 64
     0
275
    -2
285
     1
 65
     0
276
    -2
286
     1
 66
     0
277
    -2
287
     1
 67
     0
278
    -2
288
     1
 68
     0
279
    -2
289
     1
 69
     0
  0
VISUALSTYLE
  5
397D
102
{ACAD_REACTORS
330
3977
102
}
330
3977
100
AcDbVisualStyle
  2
2dWireframe
 70
     4
 71
     0
 72
     2
 73
     0
 90
        0
 40
-0.6
 41
-30.0
 62
     5
 63
     7
 74
     1
 91
        4
 64
     7
 65
   257
 75
     1
175
     1
 42
1.0
 92
        0
 66
   257
 43
1.0
 76
     1
 77
     6
 78
     2
 67
     7
 79
     5
170
     0
171
     0
290
     0
174
     0
 93
        1
 44
0.0
173
     0
291
     0
 45
0.0
1001
ACAD
1000
AcDbSavedByObjectVersion
1070
     0
1000
AcDbSavedByObjectVersion
1070
     0
1000
AcDbSavedByObjectVersion
1070
     0
  0
VISUALSTYLE
  5
397F
102
{ACAD_REACTORS
330
3977
102
}
330
3977
100
AcDbVisualStyle
  2
3D Hidden
 70
     6
 71
     1
 72
     2
 73
     2
 90
        0
 40
-0.6
 41
-30.0
 62
     5
 63
     7
 74
     2
 91
        2
 64
     7
 65
   257
 75
     2
175
     1
 42
40.0
 92
        0
 66
   257
 43
1.0
 76
     1
 77
     6
 78
     2
 67
     7
 79
     3
170
     0
171
     0
290
     0
174
     0
 93
        1
 44
0.0
173
     0
291
     0
 45
0.0
1001
ACAD
1000
AcDbSavedByObjectVersion
1070
     0
1000
AcDbSavedByObjectVersion
1070
     0
1000
AcDbSavedByObjectVersion
1070
     0
  0
VISUALSTYLE
  5
397E
102
{ACAD_REACTORS
330
3977
102
}
330
3977
100
AcDbVisualStyle
  2
3dWireframe
 70
     5
 71
     0
 72
     2
 73
     0
 90
        0
 40
-0.6
 41
-30.0
 62
     5
 63
     7
 74
     1
 91
        4
 64
     7
 65
   257
 75
     1
175
     1
 42
1.0
 92
        0
 66
   257
 43
1.0
 76
     1
 77
     6
 78
     2
 67
     7
 79
     5
170
     0
171
     0
290
     0
174
     0
 93
        1
 44
0.0
173
     0
291
     0
 45
0.0
1001
ACAD
1000
AcDbSavedByObjectVersion
1070
     0
1000
AcDbSavedByObjectVersion
1070
     0
1000
AcDbSavedByObjectVersion
1070
     0
  0
VISUALSTYLE
  5
397C
102
{ACAD_REACTORS
330
3977
102
}
330
3977
100
AcDbVisualStyle
  2
Basic
 70
     7
 71
     1
 72
     0
 73
     1
 90
        0
 40
-0.6
 41
-30.0
 62
     5
 63
     7
 74
     0
 91
        4
 64
     7
 65
   257
 75
     1
175
     1
 42
1.0
 92
        8
 66
     7
 43
1.0
 76
     1
 77
     6
 78
     2
 67
     7
 79
     5
170
     0
171
     0
290
     0
174
     0
 93
        1
 44
0.0
173
     0
291
     1
 45
0.0
1001
ACAD
1000
AcDbSavedByObjectVersion
1070
     0
1000
AcDbSavedByObjectVersion
1070
     0
1000
AcDbSavedByObjectVersion
1070
     0
  0
VISUALSTYLE
  5
3983
102
{ACAD_REACTORS
330
3977
102
}
330
3977
100
AcDbVisualStyle
  2
Brighten
 70
    12
 71
     2
 72
     2
 73
     0
 90
        0
 40
-0.6
 41
-30.0
 62
     5
 63
     7
 74
     1
 91
        4
 64
     7
 65
   257
 75
     1
175
     1
 42
1.0
 92
        8
 66
     7
 43
1.0
 76
     1
 77
     6
 78
     2
 67
     7
 79
     5
170
     0
171
     0
290
     0
174
     0
 93
        1
 44
50.0
173
     0
291
     1
 45
0.0
1001
ACAD
1000
AcDbSavedByObjectVersion
1070
     0
1000
AcDbSavedByObjectVersion
1070
     0
1000
AcDbSavedByObjectVersion
1070
     0
  0
VISUALSTYLE
  5
3987
102
{ACAD_REACTORS
330
3977
102
}
330
3977
100
AcDbVisualStyle
  2
ColorChange
 70
    16
 71
     2
 72
     2
 73
     3
 90
        0
 40
-0.6
 41
-30.0
 62
     5
 63
     8
 74
     1
 91
        4
 64
     7
 65
   257
 75
     1
175
     1
 42
1.0
 92
        8
 66
     8
 43
1.0
 76
     1
 77
     6
 78
     2
 67
     7
 79
     5
170
     0
171
     0
290
     0
174
     0
 93
        1
 44
0.0
173
     0
291
     1
 45
0.0
1001
ACAD
1000
AcDbSavedByObjectVersion
1070
     0
1000
AcDbSavedByObjectVersion
1070
     0
1000
AcDbSavedByObjectVersion
1070
     0
  0
VISUALSTYLE
  5
3980
102
{ACAD_REACTORS
330
3977
102
}
330
3977
100
AcDbVisualStyle
  2
Conceptual
 70
     9
 71
     3
 72
     2
 73
     0
 90
        0
 40
-0.6
 41
-30.0
 62
     5
 63
     7
 74
     2
 91
        2
 64
     7
 65
   257
 75
     1
175
     1
 42
40.0
 92
        8
 66
     7
 43
1.0
 76
     1
 77
     6
 78
     2
 67
     7
 79
     3
170
     0
171
     0
290
     0
174
     0
 93
        1
 44
0.0
173
     0
291
     0
 45
0.0
1001
ACAD
1000
AcDbSavedByObjectVersion
1070
     0
1000
AcDbSavedByObjectVersion
1070
     0
1000
AcDbSavedByObjectVersion
1070
     0
  0
VISUALSTYLE
  5
3982
102
{ACAD_REACTORS
330
3977
102
}
330
3977
100
AcDbVisualStyle
  2
Dim
 70
    11
 71
     2
 72
     2
 73
     0
 90
        0
 40
-0.6
 41
-30.0
 62
     5
 63
     7
 74
     1
 91
        4
 64
     7
 65
   257
 75
     1
175
     1
 42
1.0
 92
        8
 66
     7
 43
1.0
 76
     1
 77
     6
 78
     2
 67
     7
 79
     5
170
     0
171
     0
290
     0
174
     0
 93
        1
 44
-50.0
173
     0
291
     1
 45
0.0
1001
ACAD
1000
AcDbSavedByObjectVersion
1070
     0
1000
AcDbSavedByObjectVersion
1070
     0
1000
AcDbSavedByObjectVersion
1070
     0
  0
VISUALSTYLE
  5
3986
102
{ACAD_REACTORS
330
3977
102
}
330
3977
100
AcDbVisualStyle
  2
Facepattern
 70
    15
 71
     2
 72
     2
 73
     0
 90
        0
 40
-0.6
 41
-30.0
 62
     5
 63
     7
 74
     1
 91
        4
 64
     7
 65
   257
 75
     1
175
     1
 42
1.0
 92
        8
 66
     7
 43
1.0
 76
     1
 77
     6
 78
     2
 67
     7
 79
     5
170
     0
171
     0
290
     0
174
     0
 93
        1
 44
0.0
173
     0
291
     1
 45
0.0
1001
ACAD
1000
AcDbSavedByObjectVersion
1070
     0
1000
AcDbSavedByObjectVersion
1070
     0
1000
AcDbSavedByObjectVersion
1070
     0
  0
VISUALSTYLE
  5
3978
102
{ACAD_REACTORS
330
3977
102
}
330
3977
100
AcDbVisualStyle
  2
Flat
 70
     0
 71
     2
 72
     1
 73
     1
 90
        2
 40
-0.6
 41
30.0
 62
     5
 63
     7
 74
     0
 91
        4
 64
     7
 65
   257
 75
     1
175
     1
 42
1.0
 92
        8
 66
     7
 43
1.0
 76
     1
 77
     6
 78
     2
 67
     7
 79
     5
170
     0
171
     0
290
     0
174
     0
 93
       13
 44
0.0
173
     0
291
     1
 45
0.0
1001
ACAD
1000
AcDbSavedByObjectVersion
1070
     0
1000
AcDbSavedByObjectVersion
1070
     0
1000
AcDbSavedByObjectVersion
1070
     0
  0
VISUALSTYLE
  5
3979
102
{ACAD_REACTORS
330
3977
102
}
330
3977
100
AcDbVisualStyle
  2
FlatWithEdges
 70
     1
 71
     2
 72
     1
 73
     1
 90
        2
 40
-0.6
 41
30.0
 62
     5
 63
     7
 74
     1
 91
        4
 64
     7
 65
   257
 75
     1
175
     1
 42
1.0
 92
        0
 66
   257
 43
1.0
 76
     1
 77
     6
 78
     2
 67
     7
 79
     5
170
     0
171
     0
290
     0
174
     0
 93
       13
 44
0.0
173
     0
291
     1
 45
0.0
1001
ACAD
1000
AcDbSavedByObjectVersion
1070
     0
1000
AcDbSavedByObjectVersion
1070
     0
1000
AcDbSavedByObjectVersion
1070
     0
  0
VISUALSTYLE
  5
397A
102
{ACAD_REACTORS
330
3977
102
}
330
3977
100
AcDbVisualStyle
  2
Gouraud
 70
     2
 71
     2
 72
     2
 73
     1
 90
        2
 40
-0.6
 41
30.0
 62
     5
 63
     7
 74
     0
 91
        4
 64
     7
 65
   257
 75
     1
175
     1
 42
1.0
 92
        0
 66
     7
 43
1.0
 76
     1
 77
     6
 78
     2
 67
     7
 79
     5
170
     0
171
     0
290
     0
174
     0
 93
       13
 44
0.0
173
     0
291
     1
 45
0.0
1001
ACAD
1000
AcDbSavedByObjectVersion
1070
     0
1000
AcDbSavedByObjectVersion
1070
     0
1000
AcDbSavedByObjectVersion
1070
     0
  0
VISUALSTYLE
  5
397B
102
{ACAD_REACTORS
330
3977
102
}
330
3977
100
AcDbVisualStyle
  2
GouraudWithEdges
 70
     3
 71
     2
 72
     2
 73
     1
 90
        2
 40
-0.6
 41
30.0
 62
     5
 63
     7
 74
     1
 91
        4
 64
     7
 65
   257
 75
     1
175
     1
 42
1.0
 92
        0
 66
   257
 43
1.0
 76
     1
 77
     6
 78
     2
 67
     7
 79
     5
170
     0
171
     0
290
     0
174
     0
 93
       13
 44
0.0
173
     0
291
     1
 45
0.0
1001
ACAD
1000
AcDbSavedByObjectVersion
1070
     0
1000
AcDbSavedByObjectVersion
1070
     0
1000
AcDbSavedByObjectVersion
1070
     0
  0
VISUALSTYLE
  5
3985
102
{ACAD_REACTORS
330
3977
102
}
330
3977
100
AcDbVisualStyle
  2
Linepattern
 70
    14
 71
     2
 72
     2
 73
     0
 90
        0
 40
-0.6
 41
-30.0
 62
     5
 63
     7
 74
     1
 91
        4
 64
     7
 65
   257
 75
     7
175
     7
 42
1.0
 92
        8
 66
     7
 43
1.0
 76
     1
 77
     6
 78
     2
 67
     7
 79
     5
170
     0
171
     0
290
     0
174
     0
 93
        1
 44
0.0
173
     0
291
     1
 45
0.0
1001
ACAD
1000
AcDbSavedByObjectVersion
1070
     0
1000
AcDbSavedByObjectVersion
1070
     0
1000
AcDbSavedByObjectVersion
1070
     0
  0
VISUALSTYLE
  5
3981
102
{ACAD_REACTORS
330
3977
102
}
330
3977
100
AcDbVisualStyle
  2
Realistic
 70
     8
 71
     2
 72
     2
 73
     0
 90
        0
 40
-0.6
 41
-30.0
 62
     5
 63
     7
 74
     1
 91
        0
 64
     7
 65
   257
 75
     1
175
     1
 42
1.0
 92
        8
 66
     8
 43
1.0
 76
     1
 77
     6
 78
     2
 67
     7
 79
     5
170
     0
171
     0
290
     0
174
     0
 93
       13
 44
0.0
173
     0
291
     0
 45
0.0
1001
ACAD
1000
AcDbSavedByObjectVersion
1070
     0
1000
AcDbSavedByObjectVersion
1070
     0
1000
AcDbSavedByObjectVersion
1070
     0
  0
VISUALSTYLE
  5
3984
102
{ACAD_REACTORS
330
3977
102
}
330
3977
100
AcDbVisualStyle
  2
Thicken
 70
    13
 71
     2
 72
     2
 73
     0
 90
        0
 40
-0.6
 41
-30.0
 62
     5
 63
     7
 74
     1
 91
        4
 64
     7
 65
   257
 75
     1
175
     1
 42
1.0
 92
       12
 66
     7
 43
1.0
 76
     1
 77
     6
 78
     2
 67
     7
 79
     5
170
     0
171
     0
290
     0
174
     0
 93
        1
 44
0.0
173
     0
291
     1
 45
0.0
1001
ACAD
1000
AcDbSavedByObjectVersion
1070
     0
1000
AcDbSavedByObjectVersion
1070
     0
1000
AcDbSavedByObjectVersion
1070
     0
  0
DICTIONARYVAR
  5
72CE
102
{ACAD_REACTORS
330
72CB
102
}
330
72CB
100
DictionaryVariables
280
     0
  1
1:1
  0
DICTIONARYVAR
  5
72CD
102
{ACAD_REACTORS
330
72CB
102
}
330
72CB
100
DictionaryVariables
280
     0
  1
STANDARD
  0
DICTIONARYVAR
  5
72CC
102
{ACAD_REACTORS
330
72CB
102
}
330
72CB
100
DictionaryVariables
280
     0
  1
STANDARD
  0
DICTIONARYVAR
  5
72D1
102
{ACAD_REACTORS
330
72CB
102
}
330
72CB
100
DictionaryVariables
280
     0
  1
1
  0
DICTIONARYVAR
  5
72D0
102
{ACAD_REACTORS
330
72CB
102
}
330
72CB
100
DictionaryVariables
280
     0
  1
0
  0
DICTIONARYVAR
  5
72CF
102
{ACAD_REACTORS
330
72CB
102
}
330
72CB
100
DictionaryVariables
280
     0
  1
127
  0
XRECORD
  5
72C8
102
{ACAD_REACTORS
330
72C6
102
}
330
72C6
100
AcDbXrecord
280
     1
  0
DICTIONARY
  5
7847
330
21
100
AcDbDictionary
280
     1
281
     1
  3
ACAD_XREC_ROUNDTRIP
360
7848
  0
DICTIONARY
  5
7845
330
20
100
AcDbDictionary
280
     1
281
     1
  3
ACAD_XREC_ROUNDTRIP
360
7846
  0
DICTIONARY
  5
3968
330
3967
100
AcDbDictionary
280
     1
281
     1
  3
ACAD_XREC_ROUNDTRIP
360
72F3
  3
BUMPTILE
360
396A
  3
DIFFUSETILE
360
3969
  3
OPACITYTILE
360
396D
  3
REFLECTIONTILE
360
396C
  3
REFRACTIONTILE
360
396E
  3
SPECULARTILE
360
396B
  0
DICTIONARY
  5
3960
330
395F
100
AcDbDictionary
280
     1
281
     1
  3
ACAD_XREC_ROUNDTRIP
360
72F2
  3
BUMPTILE
360
3962
  3
DIFFUSETILE
360
3961
  3
OPACITYTILE
360
3965
  3
REFLECTIONTILE
360
3964
  3
REFRACTIONTILE
360
3966
  3
SPECULARTILE
360
3963
  0
DICTIONARY
  5
3970
330
396F
100
AcDbDictionary
280
     1
281
     1
  3
ACAD_XREC_ROUNDTRIP
360
72F4
  3
BUMPTILE
360
3972
  3
DIFFUSETILE
360
3971
  3
OPACITYTILE
360
3975
  3
REFLECTIONTILE
360
3974
  3
REFRACTIONTILE
360
3976
  3
SPECULARTILE
360
3973
  0
DICTIONARY
  5
72EA
330
398A
100
AcDbDictionary
280
     1
281
     1
  3
ACAD_ROUNDTRIP_2008_TABLESTYLE_CELLSTYLEMAP
360
7843
  3
ACAD_XREC_ROUNDTRIP
360
7849
  0
XRECORD
  5
7848
102
{ACAD_REACTORS
330
7847
102
}
330
7847
100
AcDbXrecord
280
     1
102
SHADEPLOT
 70
     0
102
SHADEPLOTRESLEVEL
 70
     2
102
SHADEPLOTCUSTOMDPI
 70
   300
  0
XRECORD
  5
7846
102
{ACAD_REACTORS
330
7845
102
}
330
7845
100
AcDbXrecord
280
     1
102
SHADEPLOT
 70
     0
102
SHADEPLOTRESLEVEL
 70
     2
102
SHADEPLOTCUSTOMDPI
 70
   300
  0
XRECORD
  5
72F3
102
{ACAD_REACTORS
330
3968
102
}
330
3968
100
AcDbXrecord
280
     1
102
MATERIAL
148
0.0
149
0.0
149
0.0
 93
        0
 94
      127
282
     0
 72
     0
 77
     0
171
     0
175
     0
179
     0
273
     0
  0
XRECORD
  5
396A
102
{ACAD_REACTORS
330
3968
102
}
330
3968
100
AcDbXrecord
280
     1
270
     1
271
     1
  0
XRECORD
  5
3969
102
{ACAD_REACTORS
330
3968
102
}
330
3968
100
AcDbXrecord
280
     1
270
     1
271
     1
  0
XRECORD
  5
396D
102
{ACAD_REACTORS
330
3968
102
}
330
3968
100
AcDbXrecord
280
     1
270
     1
271
     1
  0
XRECORD
  5
396C
102
{ACAD_REACTORS
330
3968
102
}
330
3968
100
AcDbXrecord
280
     1
270
     1
271
     1
  0
XRECORD
  5
396E
102
{ACAD_REACTORS
330
3968
102
}
330
3968
100
AcDbXrecord
280
     1
270
     1
271
     1
  0
XRECORD
  5
396B
102
{ACAD_REACTORS
330
3968
102
}
330
3968
100
AcDbXrecord
280
     1
270
     1
271
     1
  0
XRECORD
  5
72F2
102
{ACAD_REACTORS
330
3960
102
}
330
3960
100
AcDbXrecord
280
     1
102
MATERIAL
148
0.0
149
0.0
149
0.0
 93
        0
 94
      127
282
     0
 72
     0
 77
     0
171
     0
175
     0
179
     0
273
     0
  0
XRECORD
  5
3962
102
{ACAD_REACTORS
330
3960
102
}
330
3960
100
AcDbXrecord
280
     1
270
     1
271
     1
  0
XRECORD
  5
3961
102
{ACAD_REACTORS
330
3960
102
}
330
3960
100
AcDbXrecord
280
     1
270
     1
271
     1
  0
XRECORD
  5
3965
102
{ACAD_REACTORS
330
3960
102
}
330
3960
100
AcDbXrecord
280
     1
270
     1
271
     1
  0
XRECORD
  5
3964
102
{ACAD_REACTORS
330
3960
102
}
330
3960
100
AcDbXrecord
280
     1
270
     1
271
     1
  0
XRECORD
  5
3966
102
{ACAD_REACTORS
330
3960
102
}
330
3960
100
AcDbXrecord
280
     1
270
     1
271
     1
  0
XRECORD
  5
3963
102
{ACAD_REACTORS
330
3960
102
}
330
3960
100
AcDbXrecord
280
     1
270
     1
271
     1
  0
XRECORD
  5
72F4
102
{ACAD_REACTORS
330
3970
102
}
330
3970
100
AcDbXrecord
280
     1
102
MATERIAL
148
0.0
149
0.0
149
0.0
 93
        0
 94
      127
282
     0
 72
     0
 77
     0
171
     0
175
     0
179
     0
273
     0
  0
XRECORD
  5
3972
102
{ACAD_REACTORS
330
3970
102
}
330
3970
100
AcDbXrecord
280
     1
270
     1
271
     1
  0
XRECORD
  5
3971
102
{ACAD_REACTORS
330
3970
102
}
330
3970
100
AcDbXrecord
280
     1
270
     1
271
     1
  0
XRECORD
  5
3975
102
{ACAD_REACTORS
330
3970
102
}
330
3970
100
AcDbXrecord
280
     1
270
     1
271
     1
  0
XRECORD
  5
3974
102
{ACAD_REACTORS
330
3970
102
}
330
3970
100
AcDbXrecord
280
     1
270
     1
271
     1
  0
XRECORD
  5
3976
102
{ACAD_REACTORS
330
3970
102
}
330
3970
100
AcDbXrecord
280
     1
270
     1
271
     1
  0
XRECORD
  5
3973
102
{ACAD_REACTORS
330
3970
102
}
330
3970
100
AcDbXrecord
280
     1
270
     1
271
     1
  0
CELLSTYLEMAP
  5
7843
102
{ACAD_REACTORS
330
72EA
102
}
330
72EA
100
AcDbCellStyleMap
 90
        3
300
CELLSTYLE
  1
TABLEFORMAT_BEGIN
 90
        5
170
     1
 91
        0
 92
    32768
 62
   257
 93
        1
300
CONTENTFORMAT
  1
CONTENTFORMAT_BEGIN
 90
        0
 91
        0
 92
      512
 93
        0
300

 40
0.0
140
1.0
 94
        5
 62
     0
340
17
144
6.0
309
CONTENTFORMAT_END
171
     1
301
MARGIN
  1
CELLMARGIN_BEGIN
 40
1.5
 40
1.5
 40
1.5
 40
1.5
 40
0.18
 40
0.18
309
CELLMARGIN_END
 94
        6
 95
        1
302
GRIDFORMAT
  1
GRIDFORMAT_BEGIN
 90
        0
 91
        1
 62
     0
 92
       -2
340
0
 93
        0
 40
1.125
309
GRIDFORMAT_END
 95
        2
302
GRIDFORMAT
  1
GRIDFORMAT_BEGIN
 90
        0
 91
        1
 62
     0
 92
       -2
340
0
 93
        0
 40
1.125
309
GRIDFORMAT_END
 95
        4
302
GRIDFORMAT
  1
GRIDFORMAT_BEGIN
 90
        0
 91
        1
 62
     0
 92
       -2
340
0
 93
        0
 40
1.125
309
GRIDFORMAT_END
 95
        8
302
GRIDFORMAT
  1
GRIDFORMAT_BEGIN
 90
        0
 91
        1
 62
     0
 92
       -2
340
0
 93
        0
 40
1.125
309
GRIDFORMAT_END
 95
       16
302
GRIDFORMAT
  1
GRIDFORMAT_BEGIN
 90
        0
 91
        1
 62
     0
 92
       -2
340
0
 93
        0
 40
1.125
309
GRIDFORMAT_END
 95
       32
302
GRIDFORMAT
  1
GRIDFORMAT_BEGIN
 90
        0
 91
        1
 62
     0
 92
       -2
340
0
 93
        0
 40
1.125
309
GRIDFORMAT_END
309
TABLEFORMAT_END
  1
CELLSTYLE_BEGIN
 90
        1
 91
        1
300
_TITLE
309
CELLSTYLE_END
300
CELLSTYLE
  1
TABLEFORMAT_BEGIN
 90
        5
170
     1
 91
        0
 92
        0
 62
   257
 93
        1
300
CONTENTFORMAT
  1
CONTENTFORMAT_BEGIN
 90
        0
 91
        0
 92
      512
 93
        0
300

 40
0.0
140
1.0
 94
        5
 62
     0
340
17
144
4.5
309
CONTENTFORMAT_END
171
     1
301
MARGIN
  1
CELLMARGIN_BEGIN
 40
1.5
 40
1.5
 40
1.5
 40
1.5
 40
0.18
 40
0.18
309
CELLMARGIN_END
 94
        6
 95
        1
302
GRIDFORMAT
  1
GRIDFORMAT_BEGIN
 90
        0
 91
        1
 62
     0
 92
       -2
340
0
 93
        0
 40
1.125
309
GRIDFORMAT_END
 95
        2
302
GRIDFORMAT
  1
GRIDFORMAT_BEGIN
 90
        0
 91
        1
 62
     0
 92
       -2
340
0
 93
        0
 40
1.125
309
GRIDFORMAT_END
 95
        4
302
GRIDFORMAT
  1
GRIDFORMAT_BEGIN
 90
        0
 91
        1
 62
     0
 92
       -2
340
0
 93
        0
 40
1.125
309
GRIDFORMAT_END
 95
        8
302
GRIDFORMAT
  1
GRIDFORMAT_BEGIN
 90
        0
 91
        1
 62
     0
 92
       -2
340
0
 93
        0
 40
1.125
309
GRIDFORMAT_END
 95
       16
302
GRIDFORMAT
  1
GRIDFORMAT_BEGIN
 90
        0
 91
        1
 62
     0
 92
       -2
340
0
 93
        0
 40
1.125
309
GRIDFORMAT_END
 95
       32
302
GRIDFORMAT
  1
GRIDFORMAT_BEGIN
 90
        0
 91
        1
 62
     0
 92
       -2
340
0
 93
        0
 40
1.125
309
GRIDFORMAT_END
309
TABLEFORMAT_END
  1
CELLSTYLE_BEGIN
 90
        2
 91
        1
300
_HEADER
309
CELLSTYLE_END
300
CELLSTYLE
  1
TABLEFORMAT_BEGIN
 90
        5
170
     1
 91
        0
 92
        0
 62
   257
 93
        1
300
CONTENTFORMAT
  1
CONTENTFORMAT_BEGIN
 90
        0
 91
        0
 92
      512
 93
        0
300

 40
0.0
140
1.0
 94
        2
 62
     0
340
17
144
4.5
309
CONTENTFORMAT_END
171
     1
301
MARGIN
  1
CELLMARGIN_BEGIN
 40
1.5
 40
1.5
 40
1.5
 40
1.5
 40
0.18
 40
0.18
309
CELLMARGIN_END
 94
        6
 95
        1
302
GRIDFORMAT
  1
GRIDFORMAT_BEGIN
 90
        0
 91
        1
 62
     0
 92
       -2
340
0
 93
        0
 40
1.125
309
GRIDFORMAT_END
 95
        2
302
GRIDFORMAT
  1
GRIDFORMAT_BEGIN
 90
        0
 91
        1
 62
     0
 92
       -2
340
0
 93
        0
 40
1.125
309
GRIDFORMAT_END
 95
        4
302
GRIDFORMAT
  1
GRIDFORMAT_BEGIN
 90
        0
 91
        1
 62
     0
 92
       -2
340
0
 93
        0
 40
1.125
309
GRIDFORMAT_END
 95
        8
302
GRIDFORMAT
  1
GRIDFORMAT_BEGIN
 90
        0
 91
        1
 62
     0
 92
       -2
340
0
 93
        0
 40
1.125
309
GRIDFORMAT_END
 95
       16
302
GRIDFORMAT
  1
GRIDFORMAT_BEGIN
 90
        0
 91
        1
 62
     0
 92
       -2
340
0
 93
        0
 40
1.125
309
GRIDFORMAT_END
 95
       32
302
GRIDFORMAT
  1
GRIDFORMAT_BEGIN
 90
        0
 91
        1
 62
     0
 92
       -2
340
0
 93
        0
 40
1.125
309
GRIDFORMAT_END
309
TABLEFORMAT_END
  1
CELLSTYLE_BEGIN
 90
        3
 91
        2
300
_DATA
309
CELLSTYLE_END
  0
XRECORD
  5
7849
102
{ACAD_REACTORS
330
72EA
102
}
330
72EA
100
AcDbXrecord
280
     1
102
ACAD_ROUNDTRIP_PRE2007_TABLESTYLE
 90
      512
 91
        0
  1

 92
      512
 93
        0
  2

 94
      512
 95
        0
  3

  0
ENDSEC
  0
EOF
