  0
SECTION
  2
HEADER
  9
$ACADVER
  1
AC1015
  9
$ACADMAINTVER
 70
    20
  9
$DWGCODEPAGE
  3
ANSI_1252
  9
$INSBASE
 10
0.0
 20
0.0
 30
0.0
  9
$EXTMIN
 10
-114.2914081452245
 20
-143.2780651674777
 30
-0.0000000000000087
  9
$EXTMAX
 10
162.194419880866
 20
177.0170741000649
 30
0.0000000000000066
  9
$LIMMIN
 10
-20.0
 20
-0.021978
  9
$LIMMAX
 10
2645.85
 20
758.35
  9
$ORTHOMODE
 70
     1
  9
$REGENMODE
 70
     1
  9
$FILLMODE
 70
     1
  9
$QTEXTMODE
 70
     0
  9
$MIRRTEXT
 70
     1
  9
$LTSCALE
 40
10.0
  9
$ATTMODE
 70
     1
  9
$TEXTSIZE
 40
0.0
  9
$TRACEWID
 40
0.05
  9
$TEXTSTYLE
  7
Standard
  9
$CLAYER
  8
0
  9
$CELTYPE
  6
Continuous
  9
$CECOLOR
 62
   256
  9
$CELTSCALE
 40
1.0
  9
$DISPSILH
 70
     0
  9
$DIMSCALE
 40
1.0
  9
$DIMASZ
 40
1.25
  9
$DIMEXO
 40
0.0
  9
$DIMDLI
 40
0.38
  9
$DIMRND
 40
0.0
  9
$DIMDLE
 40
0.0
  9
$DIMEXE
 40
0.75
  9
$DIMTP
 40
0.0
  9
$DIMTM
 40
0.0
  9
$DIMTXT
 40
2.5
  9
$DIMCEN
 40
0.09
  9
$DIMTSZ
 40
0.0
  9
$DIMTOL
 70
     0
  9
$DIMLIM
 70
     0
  9
$DIMTIH
 70
     0
  9
$DIMTOH
 70
     0
  9
$DIMSE1
 70
     0
  9
$DIMSE2
 70
     0
  9
$DIMTAD
 70
     1
  9
$DIMZIN
 70
     0
  9
$DIMBLK
  1

  9
$DIMASO
 70
     1
  9
$DIMSHO
 70
     1
  9
$DIMPOST
  1

  9
$DIMAPOST
  1

  9
$DIMALT
 70
     0
  9
$DIMALTD
 70
     2
  9
$DIMALTF
 40
25.4
  9
$DIMLFAC
 40
1.0
  9
$DIMTOFL
 70
     0
  9
$DIMTVP
 40
0.0
  9
$DIMTIX
 70
     0
  9
$DIMSOXD
 70
     0
  9
$DIMSAH
 70
     0
  9
$DIMBLK1
  1

  9
$DIMBLK2
  1

  9
$DIMSTYLE
  2
Standard
  9
$DIMCLRD
 70
     7
  9
$DIMCLRE
 70
     7
  9
$DIMCLRT
 70
     7
  9
$DIMTFAC
 40
0.8
  9
$DIMGAP
 40
1.25
  9
$DIMJUST
 70
     0
  9
$DIMSD1
 70
     0
  9
$DIMSD2
 70
     0
  9
$DIMTOLJ
 70
     1
  9
$DIMTZIN
 70
     0
  9
$DIMALTZ
 70
     0
  9
$DIMALTTZ
 70
     0
  9
$DIMUPT
 70
     0
  9
$DIMDEC
 70
     2
  9
$DIMTDEC
 70
     4
  9
$DIMALTU
 70
     2
  9
$DIMALTTD
 70
     2
  9
$DIMTXSTY
  7
Standard
  9
$DIMAUNIT
 70
     0
  9
$DIMADEC
 70
     0
  9
$DIMALTRND
 40
0.0
  9
$DIMAZIN
 70
     0
  9
$DIMDSEP
 70
     0
  9
$DIMATFIT
 70
     3
  9
$DIMFRAC
 70
     0
  9
$DIMLDRBLK
  1

  9
$DIMLUNIT
 70
     2
  9
$DIMLWD
 70
     0
  9
$DIMLWE
 70
     0
  9
$DIMTMOVE
 70
     0
  9
$LUNITS
 70
     2
  9
$LUPREC
 70
     4
  9
$SKETCHINC
 40
0.1
  9
$FILLETRAD
 40
5.0
  9
$AUNITS
 70
     0
  9
$AUPREC
 70
     0
  9
$MENU
  1
acad
  9
$ELEVATION
 40
0.0
  9
$PELEVATION
 40
0.0
  9
$THICKNESS
 40
0.0
  9
$LIMCHECK
 70
     0
  9
$CHAMFERA
 40
0.0
  9
$CHAMFERB
 40
0.0
  9
$CHAMFERC
 40
0.0
  9
$CHAMFERD
 40
0.0
  9
$SKPOLY
 70
     0
  9
$TDCREATE
 40
2455329.702198484
  9
$TDUCREATE
 40
2455329.618865150
  9
$TDUPDATE
 40
2455380.471414514
  9
$TDUUPDATE
 40
2455380.388081180
  9
$TDINDWG
 40
0.0412356829
  9
$TDUSRTIMER
 40
0.0412344213
  9
$USRTIMER
 70
     1
  9
$ANGBASE
 50
0.0
  9
$ANGDIR
 70
     0
  9
$PDMODE
 70
     0
  9
$PDSIZE
 40
0.0
  9
$PLINEWID
 40
0.0
  9
$SPLFRAME
 70
     0
  9
$SPLINETYPE
 70
     6
  9
$SPLINESEGS
 70
     8
  9
$HANDSEED
  5
73CF
  9
$SURFTAB1
 70
     6
  9
$SURFTAB2
 70
     6
  9
$SURFTYPE
 70
     6
  9
$SURFU
 70
     6
  9
$SURFV
 70
     6
  9
$UCSBASE
  2

  9
$UCSNAME
  2

  9
$UCSORG
 10
0.0
 20
0.0
 30
0.0
  9
$UCSXDIR
 10
1.0
 20
0.0
 30
0.0
  9
$UCSYDIR
 10
0.0
 20
1.0
 30
0.0
  9
$UCSORTHOREF
  2

  9
$UCSORTHOVIEW
 70
     0
  9
$UCSORGTOP
 10
0.0
 20
0.0
 30
0.0
  9
$UCSORGBOTTOM
 10
0.0
 20
0.0
 30
0.0
  9
$UCSORGLEFT
 10
0.0
 20
0.0
 30
0.0
  9
$UCSORGRIGHT
 10
0.0
 20
0.0
 30
0.0
  9
$UCSORGFRONT
 10
0.0
 20
0.0
 30
0.0
  9
$UCSORGBACK
 10
0.0
 20
0.0
 30
0.0
  9
$PUCSBASE
  2

  9
$PUCSNAME
  2

  9
$PUCSORG
 10
0.0
 20
0.0
 30
0.0
  9
$PUCSXDIR
 10
1.0
 20
0.0
 30
0.0
  9
$PUCSYDIR
 10
0.0
 20
1.0
 30
0.0
  9
$PUCSORTHOREF
  2

  9
$PUCSORTHOVIEW
 70
     0
  9
$PUCSORGTOP
 10
0.0
 20
0.0
 30
0.0
  9
$PUCSORGBOTTOM
 10
0.0
 20
0.0
 30
0.0
  9
$PUCSORGLEFT
 10
0.0
 20
0.0
 30
0.0
  9
$PUCSORGRIGHT
 10
0.0
 20
0.0
 30
0.0
  9
$PUCSORGFRONT
 10
0.0
 20
0.0
 30
0.0
  9
$PUCSORGBACK
 10
0.0
 20
0.0
 30
0.0
  9
$USERI1
 70
     0
  9
$USERI2
 70
     0
  9
$USERI3
 70
     0
  9
$USERI4
 70
     0
  9
$USERI5
 70
     0
  9
$USERR1
 40
0.0
  9
$USERR2
 40
0.0
  9
$USERR3
 40
0.0
  9
$USERR4
 40
0.0
  9
$USERR5
 40
0.0
  9
$WORLDVIEW
 70
     1
  9
$SHADEDGE
 70
     3
  9
$SHADEDIF
 70
    70
  9
$TILEMODE
 70
     1
  9
$MAXACTVP
 70
    16
  9
$PINSBASE
 10
0.0
 20
0.0
 30
0.0
  9
$PLIMCHECK
 70
     0
  9
$PEXTMIN
 10
1.000000000000000E+20
 20
1.000000000000000E+20
 30
1.000000000000000E+20
  9
$PEXTMAX
 10
-1.000000000000000E+20
 20
-1.000000000000000E+20
 30
-1.000000000000000E+20
  9
$PLIMMIN
 10
0.0
 20
0.0
  9
$PLIMMAX
 10
12.0
 20
9.0
  9
$UNITMODE
 70
     0
  9
$VISRETAIN
 70
     0
  9
$PLINEGEN
 70
     1
  9
$PSLTSCALE
 70
     0
  9
$TREEDEPTH
 70
  3020
  9
$CMLSTYLE
  2
Standard
  9
$CMLJUST
 70
     0
  9
$CMLSCALE
 40
1.0
  9
$PROXYGRAPHICS
 70
     0
  9
$MEASUREMENT
 70
     1
  9
$CELWEIGHT
370
     0
  9
$ENDCAPS
280
     0
  9
$JOINSTYLE
280
     0
  9
$LWDISPLAY
290
     0
  9
$INSUNITS
 70
     0
  9
$HYPERLINKBASE
  1

  9
$STYLESHEET
  1

  9
$XEDIT
290
     1
  9
$CEPSNTYPE
380
     0
  9
$PSTYLEMODE
290
     1
  9
$FINGERPRINTGUID
  2

  9
$VERSIONGUID
  2
{7E34DCF6-63F2-4721-A223-A074BBFB9424}
  9
$EXTNAMES
290
     1
  9
$PSVPSCALE
 40
0.0
  9
$OLESTARTUP
290
     0
  0
ENDSEC
  0
SECTION
  2
CLASSES
  0
CLASS
  1
IMAGE
  2
AcDbRasterImage
  3
ISM
 90
    34943
280
     0
281
     1
  0
CLASS
  1
DICTIONARYVAR
  2
AcDbDictionaryVar
  3
ObjectDBX Classes
 90
        0
280
     0
281
     0
  0
CLASS
  1
RASTERVARIABLES
  2
AcDbRasterVariables
  3
ISM
 90
    32768
280
     0
281
     0
  0
CLASS
  1
IMAGEDEF
  2
AcDbRasterImageDef
  3
ISM
 90
    32768
280
     0
281
     0
  0
CLASS
  1
IMAGEDEF_REACTOR
  2
AcDbRasterImageDefReactor
  3
ISM
 90
    32769
280
     0
281
     0
  0
CLASS
  1
IDBUFFER
  2
AcDbIdBuffer
  3
ObjectDBX Classes
 90
    32768
280
     0
281
     0
  0
CLASS
  1
SPATIAL_FILTER
  2
AcDbSpatialFilter
  3
ObjectDBX Classes
 90
    32768
280
     0
281
     0
  0
CLASS
  1
SORTENTSTABLE
  2
AcDbSortentsTable
  3
ObjectDBX Classes
 90
        0
280
     0
281
     0
  0
CLASS
  1
LAYER_INDEX
  2
AcDbLayerIndex
  3
ObjectDBX Classes
 90
    32768
280
     0
281
     0
  0
CLASS
  1
SPATIAL_INDEX
  2
AcDbSpatialIndex
  3
ObjectDBX Classes
 90
    32768
280
     0
281
     0
  0
CLASS
  1
OBJECT_PTR
  2
CAseDLPNTableRecord
  3
ASE-LPNTableRecord
 90
    32769
280
     0
281
     0
  0
CLASS
  1
LAYOUT
  2
AcDbLayout
  3
ObjectDBX Classes
 90
        0
280
     0
281
     0
  0
CLASS
  1
PLOTSETTINGS
  2
AcDbPlotSettings
  3
ObjectDBX Classes
 90
    32768
280
     0
281
     0
  0
CLASS
  1
ACDBDICTIONARYWDFLT
  2
AcDbDictionaryWithDefault
  3
ObjectDBX Classes
 90
        0
280
     0
281
     0
  0
CLASS
  1
ACDBPLACEHOLDER
  2
AcDbPlaceHolder
  3
ObjectDBX Classes
 90
        0
280
     0
281
     0
  0
CLASS
  1
VBA_PROJECT
  2
AcDbVbaProject
  3
acad
 90
    32768
280
     0
281
     0
  0
CLASS
  1
WIPEOUT
  2
AcDbWipeout
  3
"WipeOut|Product Desc: Object Enabler for WipeOut entity                        |Company: Autodesk, Inc.                        |WEB Address: www.autodesk.com"
 90
    34943
280
     0
281
     1
  0
CLASS
  1
WIPEOUTVARIABLES
  2
AcDbWipeoutVariables
  3
"WipeOut|Product Desc:     WipeOut Dbx Application|Company:          Autodesk, Inc.|WEB Address:      www.autodesk.com"
 90
        0
280
     0
281
     0
  0
CLASS
  1
RTEXT
  2
RText
  3
RText|AutoCAD Express Tool|expresstools@autodesk.com
 90
    35839
280
     0
281
     1
  0
CLASS
  1
ARCALIGNEDTEXT
  2
AcDbArcAlignedText
  3
ATEXT|AutoCAD Express Tool|expresstools@autodesk.com
 90
    32768
280
     0
281
     1
  0
CLASS
  1
MATERIAL
  2
AcDbMaterial
  3
ObjectDBX Classes
 90
     1153
280
     0
281
     0
  0
CLASS
  1
VISUALSTYLE
  2
AcDbVisualStyle
  3
ObjectDBX Classes
 90
     4095
280
     0
281
     0
  0
CLASS
  1
TABLESTYLE
  2
AcDbTableStyle
  3
ObjectDBX Classes
 90
     4095
280
     0
281
     0
  0
CLASS
  1
SCALE
  2
AcDbScale
  3
ObjectDBX Classes
 90
     1153
280
     0
281
     0
  0
CLASS
  1
MLEADERSTYLE
  2
AcDbMLeaderStyle
  3
ACDB_MLEADERSTYLE_CLASS
 90
     4095
280
     0
281
     0
  0
CLASS
  1
CELLSTYLEMAP
  2
AcDbCellStyleMap
  3
ObjectDBX Classes
 90
     1152
280
     0
281
     0
  0
ENDSEC
  0
SECTION
  2
TABLES
  0
TABLE
  2
VPORT
  5
7
330
0
100
AcDbSymbolTable
 70
     1
  0
VPORT
  5
15
330
7
100
AcDbSymbolTableRecord
100
AcDbViewportTableRecord
  2
*ACTIVE
 70
     0
 10
0.0
 20
0.0
 11
1.0
 21
1.0
 12
23.95150586782071
 22
16.86950446629362
 13
0.0
 23
0.0
 14
1.0
 24
1.0
 15
0.0
 25
0.0
 16
0.0
 26
0.0
 36
1.0
 17
0.0
 27
0.0
 37
0.0
 40
322.8237851038654
 41
1.611330698287219
 42
50.0
 43
0.0
 44
0.0
 50
0.0
 51
0.0
 71
     0
 72
   100
 73
     1
 74
     1
 75
     0
 76
     0
 77
     0
 78
     0
281
     0
 65
     0
110
0.0
120
0.0
130
0.0
111
1.0
121
0.0
131
0.0
112
0.0
122
1.0
132
0.0
 79
     0
146
0.0
  0
ENDTAB
  0
TABLE
  2
LTYPE
  5
4
330
0
100
AcDbSymbolTable
 70
     2
  0
LTYPE
  5
11
330
4
100
AcDbSymbolTableRecord
100
AcDbLinetypeTableRecord
  2
ByBlock
 70
     0
  3

 72
    65
 73
     0
 40
0.0
  0
LTYPE
  5
12
330
4
100
AcDbSymbolTableRecord
100
AcDbLinetypeTableRecord
  2
ByLayer
 70
     0
  3

 72
    65
 73
     0
 40
0.0
  0
LTYPE
  5
13
330
4
100
AcDbSymbolTableRecord
100
AcDbLinetypeTableRecord
  2
Continuous
 70
     0
  3
Solid line
 72
    65
 73
     0
 40
0.0
  0
LTYPE
  5
2A2
330
4
100
AcDbSymbolTableRecord
100
AcDbLinetypeTableRecord
  2
CENTER
 70
     0
  3
____ _ ____ _ ____ _ ____ _ ____ _ ____ _ ____
 72
    65
 73
     4
 40
2.0
 49
1.25
 74
     0
 49
-0.25
 74
     0
 49
0.25
 74
     0
 49
-0.25
 74
     0
  0
ENDTAB
  0
TABLE
  2
LAYER
  5
2
330
0
100
AcDbSymbolTable
 70
     2
  0
LAYER
  5
14
102
{ACAD_XDICTIONARY
360
72C9
102
}
330
2
100
AcDbSymbolTableRecord
100
AcDbLayerTableRecord
  2
0
 70
     0
 62
     7
  6
Continuous
370
    -3
390
1D
  0
LAYER
  5
7336
330
2
100
AcDbSymbolTableRecord
100
AcDbLayerTableRecord
  2
Defpoints
 70
     0
 62
     7
  6
Continuous
290
     0
370
    -3
390
1D
  0
ENDTAB
  0
TABLE
  2
STYLE
  5
3
330
0
100
AcDbSymbolTable
 70
     1
  0
STYLE
  5
17
330
3
100
AcDbSymbolTableRecord
100
AcDbTextStyleTableRecord
  2
Standard
 70
     0
 40
0.0
 41
1.0
 50
0.0
 71
     0
 42
0.0
  3
IsonormD
  4

1001
ACAD
1000
IsonormD
1071
        0
  0
ENDTAB
  0
TABLE
  2
VIEW
  5
5
330
0
100
AcDbSymbolTable
 70
     0
  0
ENDTAB
  0
TABLE
  2
UCS
  5
6
330
0
100
AcDbSymbolTable
 70
     0
  0
ENDTAB
  0
TABLE
  2
APPID
  5
8
330
0
100
AcDbSymbolTable
 70
     6
  0
APPID
  5
16
330
8
100
AcDbSymbolTableRecord
100
AcDbRegAppTableRecord
  2
ACAD
 70
     0
  0
APPID
  5
26
330
8
100
AcDbSymbolTableRecord
100
AcDbRegAppTableRecord
  2
TopSolid_Draft
 70
     0
  0
APPID
  5
39AF
330
8
100
AcDbSymbolTableRecord
100
AcDbRegAppTableRecord
  2
ACAD_MLEADERVER
 70
     0
  0
APPID
  5
72C7
330
8
100
AcDbSymbolTableRecord
100
AcDbRegAppTableRecord
  2
DCO15
 70
     0
  0
APPID
  5
7314
330
8
100
AcDbSymbolTableRecord
100
AcDbRegAppTableRecord
  2
ACAD_EXEMPT_FROM_CAD_STANDARDS
 70
     0
  0
APPID
  5
738E
330
8
100
AcDbSymbolTableRecord
100
AcDbRegAppTableRecord
  2
ACAD_DSTYLE_DIMRADIAL_EXTENSION
 70
     0
  0
ENDTAB
  0
TABLE
  2
DIMSTYLE
  5
9
330
0
100
AcDbSymbolTable
 70
     1
100
AcDbDimStyleTable
 71
     1
340
18
  0
DIMSTYLE
105
18
330
9
100
AcDbSymbolTableRecord
100
AcDbDimStyleTableRecord
  2
Standard
 70
     0
 41
1.25
 42
0.0
 44
0.75
 73
     0
 74
     0
 77
     1
140
2.5
146
0.8
147
1.25
176
     7
177
     7
178
     7
271
     2
340
17
  0
ENDTAB
  0
TABLE
  2
BLOCK_RECORD
  5
1
330
0
100
AcDbSymbolTable
 70
     0
  0
BLOCK_RECORD
  5
A
102
{ACAD_XDICTIONARY
360
39B7
102
}
330
1
100
AcDbSymbolTableRecord
100
AcDbBlockTableRecord
  2
*MODEL_SPACE
340
20
  0
BLOCK_RECORD
  5
B
330
1
100
AcDbSymbolTableRecord
100
AcDbBlockTableRecord
  2
*PAPER_SPACE
340
21
  0
ENDTAB
  0
ENDSEC
  0
SECTION
  2
BLOCKS
  0
BLOCK
  5
D
330
A
100
AcDbEntity
  8
0
100
AcDbBlockBegin
  2
*MODEL_SPACE
 70
     0
 10
0.0
 20
0.0
 30
0.0
  3
*MODEL_SPACE
  1

  0
ENDBLK
  5
E
330
A
100
AcDbEntity
  8
0
100
AcDbBlockEnd
  0
BLOCK
  5
F
330
B
100
AcDbEntity
 67
     1
  8
0
100
AcDbBlockBegin
  2
*PAPER_SPACE
 70
     0
 10
0.0
 20
0.0
 30
0.0
  3
*PAPER_SPACE
  1

  0
ENDBLK
  5
10
330
B
100
AcDbEntity
 67
     1
  8
0
100
AcDbBlockEnd
  0
ENDSEC
  0
SECTION
  2
ENTITIES
  0
LINE
  5
2A3
330
A
100
AcDbEntity
  8
0
  6
CENTER
 62
     1
100
AcDbLine
 10
-111.277047
 20
-1.0
 30
0.0
 11
-101.977047
 21
-1.0
 31
0.0
  0
LINE
  5
2A4
330
A
100
AcDbEntity
  8
0
  6
CENTER
 62
     1
100
AcDbLine
 10
-106.627047
 20
-5.649999999999977
 30
0.0
 11
-106.627047
 21
3.649999999999976
 31
0.0
  0
LINE
  5
2A5
330
A
100
AcDbEntity
  8
0
  6
CENTER
 62
     1
100
AcDbLine
 10
-111.277047
 20
78.99999999999987
 30
0.0
 11
-101.977047
 21
78.99999999999987
 31
0.0
  0
LINE
  5
2A6
330
A
100
AcDbEntity
  8
0
  6
CENTER
 62
     1
100
AcDbLine
 10
-106.627047
 20
74.35000000000002
 30
0.0
 11
-106.627047
 21
83.64999999999975
 31
0.0
  0
LINE
  5
2A7
330
A
100
AcDbEntity
  8
0
  6
CENTER
 62
     1
100
AcDbLine
 10
-99.62704700000001
 20
35.45000000000005
 30
0.0
 11
-99.62704700000001
 21
42.54999999999973
 31
0.0
  0
LINE
  5
2A8
330
A
100
AcDbEntity
  8
0
  6
CENTER
 62
     1
100
AcDbLine
 10
-90.17704700000001
 20
26.0
 30
0.0
 11
-83.077047
 21
26.0
 31
0.0
  0
LINE
  5
2A9
330
A
100
AcDbEntity
  8
0
  6
CENTER
 62
     1
100
AcDbLine
 10
-90.17704700000001
 20
52.0
 30
0.0
 11
-83.077047
 21
52.0
 31
0.0
  0
LINE
  5
2AA
330
A
100
AcDbEntity
  8
0
  6
CENTER
 62
     1
100
AcDbLine
 10
-82.02704700000003
 20
20.0
 30
0.0
 11
-75.227047
 21
20.0
 31
0.0
  0
LINE
  5
2AB
330
A
100
AcDbEntity
  8
0
  6
CENTER
 62
     1
100
AcDbLine
 10
-78.62704699999999
 20
16.60000000000002
 30
0.0
 11
-78.62704699999999
 21
23.39999999999975
 31
0.0
  0
LINE
  5
2AC
330
A
100
AcDbEntity
  8
0
  6
CENTER
 62
     1
100
AcDbLine
 10
-73.62704699999999
 20
35.45000000000005
 30
0.0
 11
-73.62704699999999
 21
42.54999999999973
 31
0.0
  0
LINE
  5
2AD
330
A
100
AcDbEntity
  8
0
  6
CENTER
 62
     1
100
AcDbLine
 10
-71.27704700000002
 20
-1.0
 30
0.0
 11
-61.977047
 21
-1.0
 31
0.0
  0
LINE
  5
2AE
330
A
100
AcDbEntity
  8
0
  6
CENTER
 62
     1
100
AcDbLine
 10
-66.62704699999999
 20
-5.649999999999977
 30
0.0
 11
-66.62704699999999
 21
3.649999999999976
 31
0.0
  0
LINE
  5
2AF
330
A
100
AcDbEntity
  8
0
  6
CENTER
 62
     1
100
AcDbLine
 10
-71.27704700000002
 20
78.99999999999987
 30
0.0
 11
-61.977047
 21
78.99999999999987
 31
0.0
  0
LINE
  5
2B0
330
A
100
AcDbEntity
  8
0
  6
CENTER
 62
     1
100
AcDbLine
 10
-66.62704699999999
 20
74.35000000000002
 30
0.0
 11
-66.62704699999999
 21
83.64999999999975
 31
0.0
  0
LINE
  5
2B1
330
A
100
AcDbEntity
  8
0
  6
CENTER
 62
     1
100
AcDbLine
 10
-104.127047
 20
39.0
 30
0.0
 11
-69.12704699999999
 21
39.0
 31
0.0
  0
LINE
  5
2B2
330
A
100
AcDbEntity
  8
0
  6
CENTER
 62
     1
100
AcDbLine
 10
-86.62704699999999
 20
21.5
 30
0.0
 11
-86.62704699999999
 21
56.5
 31
0.0
  0
LINE
  5
2B3
330
A
100
AcDbEntity
  8
0
  6
CENTER
 62
     1
100
AcDbLine
 10
96.22295300000001
 20
-1.0
 30
0.0
 11
105.522953
 21
-1.0
 31
0.0
  0
LINE
  5
2B4
330
A
100
AcDbEntity
  8
0
  6
CENTER
 62
     1
100
AcDbLine
 10
100.872953
 20
-5.649999999999977
 30
0.0
 11
100.872953
 21
3.649999999999976
 31
0.0
  0
LINE
  5
2B5
330
A
100
AcDbEntity
  8
0
  6
CENTER
 62
     1
100
AcDbLine
 10
96.22295300000001
 20
78.99999999999987
 30
0.0
 11
105.522953
 21
78.99999999999987
 31
0.0
  0
LINE
  5
2B6
330
A
100
AcDbEntity
  8
0
  6
CENTER
 62
     1
100
AcDbLine
 10
100.872953
 20
74.35000000000002
 30
0.0
 11
100.872953
 21
83.64999999999975
 31
0.0
  0
LINE
  5
2B7
330
A
100
AcDbEntity
  8
0
  6
CENTER
 62
     1
100
AcDbLine
 10
133.672953
 20
-1.0
 30
0.0
 11
148.072953
 21
-1.0
 31
0.0
  0
LINE
  5
2B8
330
A
100
AcDbEntity
  8
0
  6
CENTER
 62
     1
100
AcDbLine
 10
140.872953
 20
-8.200000000000045
 30
0.0
 11
140.872953
 21
6.200000000000045
 31
0.0
  0
LINE
  5
2B9
330
A
100
AcDbEntity
  8
0
  6
CENTER
 62
     1
100
AcDbLine
 10
133.672953
 20
78.99999999999987
 30
0.0
 11
148.072953
 21
78.99999999999987
 31
0.0
  0
LINE
  5
2BA
330
A
100
AcDbEntity
  8
0
  6
CENTER
 62
     1
100
AcDbLine
 10
140.872953
 20
71.79999999999973
 30
0.0
 11
140.872953
 21
86.20000000000002
 31
0.0
  0
ELLIPSE
  5
6DAE
330
A
100
AcDbEntity
  8
0
  6
Continuous
 62
     7
100
AcDbEllipse
 10
108.066366
 20
-109.0840589999999
 30
0.0
 11
-0.3199999999483061
 21
-1.567673435391769
 31
0.0
210
0.0000000000000001
220
0.0
230
1.0
 40
0.4082480000000002
 41
3.141592653589773
 42
3.605240262577113
  0
ELLIPSE
  5
6DAF
330
A
100
AcDbEntity
  8
0
  6
Continuous
 62
     7
100
AcDbEllipse
 10
108.066366
 20
-109.0840589999999
 30
0.0
 11
-0.3199999999483061
 21
-1.567673435391769
 31
0.0
210
0.0000000000000001
220
0.0
230
1.0
 40
0.4082480000000002
 41
3.605240262577129
 42
6.283185307179602
  0
ELLIPSE
  5
6DB0
330
A
100
AcDbEntity
  8
0
  6
Continuous
 62
     7
100
AcDbEllipse
 10
108.066366
 20
-109.0840589999999
 30
0.0
 11
-0.3199999999483061
 21
-1.567673435391769
 31
0.0
210
0.0000000000000001
220
0.0
230
1.0
 40
0.4082480000000002
 41
0.0000000000000179
 42
3.141592653589773
  0
ELLIPSE
  5
6DB1
330
A
100
AcDbEntity
  8
0
  6
Continuous
 62
     7
100
AcDbEllipse
 10
107.5064
 20
-108.9697570000001
 30
0.0
 11
-0.3199999999483061
 21
-1.567673435391769
 31
0.0
210
0.0
220
0.0
230
1.0
 40
0.4082480000000002
 41
3.141592653589773
 42
6.283185307179602
  0
ELLIPSE
  5
6DB2
330
A
100
AcDbEntity
  8
0
  6
Continuous
 62
     7
100
AcDbEllipse
 10
108.066366
 20
-73.22648899999996
 30
0.0
 11
-0.3199999999484171
 21
-1.56767343539177
 31
0.0
210
0.0
220
0.0
230
0.9999999999999998
 40
0.4082480000000002
 41
3.141592653589808
 42
3.605240262577138
  0
ELLIPSE
  5
6DB3
330
A
100
AcDbEntity
  8
0
  6
Continuous
 62
     7
100
AcDbEllipse
 10
108.066366
 20
-73.22648899999996
 30
0.0
 11
-0.3199999999483893
 21
-1.567673435391769
 31
0.0
210
0.0
220
0.0
230
1.0
 40
0.4082480000000002
 41
3.605240262577154
 42
6.283185307179602
  0
ELLIPSE
  5
6DB4
330
A
100
AcDbEntity
  8
0
  6
Continuous
 62
     7
100
AcDbEllipse
 10
108.066366
 20
-73.22648899999996
 30
0.0
 11
-0.3199999999483893
 21
-1.567673435391769
 31
0.0
210
0.0
220
0.0
230
1.0
 40
0.4082480000000002
 41
0.0000000000000169
 42
3.141592653589808
  0
ELLIPSE
  5
6DB5
330
A
100
AcDbEntity
  8
0
  6
Continuous
 62
     7
100
AcDbEllipse
 10
107.5064
 20
-73.11218700000019
 30
0.0
 11
-0.3199999999484171
 21
-1.56767343539177
 31
0.0
210
0.0
220
0.0
230
0.9999999999999998
 40
0.4082480000000002
 41
3.141592653589877
 42
6.283185307179627
  0
LINE
  5
6DB6
330
A
100
AcDbEntity
  8
0
  6
Continuous
 62
     7
100
AcDbLine
 10
102.497608
 20
-45.10530700000015
 30
0.0
 11
144.7145719999999
 21
-53.72280799999998
 31
0.0
  0
ELLIPSE
  5
6DB7
330
A
100
AcDbEntity
  8
0
  6
Continuous
 62
     7
100
AcDbEllipse
 10
144.7145719999999
 20
-57.73944000000017
 30
0.0
 11
-2.782804340963451
 21
3.408225344650129
 31
0.0
210
0.0
220
0.0
230
1.0
 40
0.816497
 41
4.355995992690548
 42
5.497787143778504
  0
LINE
  5
6DB8
330
A
100
AcDbEntity
  8
0
  6
Continuous
 62
     9
100
AcDbLine
 10
145.2512279999999
 20
-53.2846300000001
 30
0.0
 11
144.7145719999999
 21
-53.72280799999998
 31
0.0
  0
ELLIPSE
  5
6DB9
330
A
100
AcDbEntity
  8
0
  6
Continuous
 62
     7
100
AcDbEllipse
 10
145.2512279999999
 20
-57.30126200000029
 30
0.0
 11
-2.782804340963395
 21
3.408225344650017
 31
0.0
210
0.0
220
0.0
230
1.0
 40
0.816497
 41
4.348512823147778
 42
5.497787143778478
  0
LINE
  5
6DBA
330
A
100
AcDbEntity
  8
0
  6
Continuous
 62
     9
100
AcDbLine
 10
103.0342639999999
 20
-44.66712900000015
 30
0.0
 11
102.497608
 21
-45.10530700000015
 31
0.0
  0
LINE
  5
6DBB
330
A
100
AcDbEntity
  8
0
  6
Continuous
 62
     7
100
AcDbLine
 10
103.0342639999999
 20
-44.66712900000015
 30
0.0
 11
145.2512279999999
 21
-53.2846300000001
 31
0.0
  0
ELLIPSE
  5
6DBC
330
A
100
AcDbEntity
  8
0
  6
Continuous
 62
     7
100
AcDbEllipse
 10
103.0342639999999
 20
-48.68376099999999
 30
0.0
 11
-2.782804340963451
 21
3.408225344650129
 31
0.0000000000000002
210
0.0
220
0.0
230
1.0
 40
0.816497
 41
5.497787143778491
 42
6.283185307179584
  0
ELLIPSE
  5
6DBD
330
A
100
AcDbEntity
  8
0
  6
Continuous
 62
     7
100
AcDbEllipse
 10
102.497608
 20
-49.12193900000001
 30
0.0
 11
-2.782804340963451
 21
3.408225344650129
 31
0.0000000000000002
210
0.0
220
0.0
230
1.0
 40
0.816497
 41
5.497787143778491
 42
6.283185307179584
  0
ELLIPSE
  5
6DBE
330
A
100
AcDbEntity
  8
0
  6
Continuous
 62
     7
100
AcDbEllipse
 10
113.7673909999999
 20
-57.44732199999997
 30
0.0
 11
4.806662043482318
 21
-5.886934686213816
 31
0.0000000000000003
210
0.0
220
0.0
230
1.0
 40
0.8164969999999998
 41
2.030311532971185
 42
2.682077447406209
  0
ELLIPSE
  5
6DBF
330
A
100
AcDbEntity
  8
0
  6
Continuous
 62
     7
100
AcDbEllipse
 10
102.1398369999999
 20
-49.41405799999995
 30
0.0
 11
-2.782804340963368
 21
3.408225344650126
 31
0.0000000000000002
210
0.0
220
0.0
230
0.9999999999999998
 40
0.8164970000000002
 41
0.000000000000005
 42
0.5561219601931559
  0
LINE
  5
6DC0
330
A
100
AcDbEntity
  8
0
  6
Continuous
 62
     7
100
AcDbLine
 10
102.1398369999999
 20
-45.3974250000001
 30
0.0
 11
144.356801
 21
-54.01492699999983
 31
0.0
  0
ELLIPSE
  5
6DC1
330
A
100
AcDbEntity
  8
0
  6
Continuous
 62
     7
100
AcDbEllipse
 10
144.356801
 20
-58.03155900000001
 30
0.0
 11
-2.782804340963395
 21
3.408225344650129
 31
0.0
210
0.0
220
0.0
230
1.0
 40
0.816497
 41
4.36298799310147
 42
5.4977871437785
  0
LINE
  5
6DC2
330
A
100
AcDbEntity
  8
0
  6
Continuous
 62
     9
100
AcDbLine
 10
145.2512279999999
 20
-53.2846300000001
 30
0.0
 11
144.7145719999999
 21
-53.72280799999998
 31
0.0
  0
LINE
  5
6DC3
330
A
100
AcDbEntity
  8
0
  6
Continuous
 62
     9
100
AcDbLine
 10
144.7145719999999
 20
-53.72280799999998
 30
0.0
 11
144.356801
 21
-54.01492699999983
 31
0.0
  0
ELLIPSE
  5
6DC4
330
A
100
AcDbEntity
  8
0
  6
Continuous
 62
     7
100
AcDbEllipse
 10
145.2512279999999
 20
-57.30126200000029
 30
0.0
 11
-2.782804340963395
 21
3.408225344650129
 31
0.0
210
0.0
220
0.0
230
1.0
 40
0.816497
 41
4.348512823138183
 42
5.4977871437785
  0
LINE
  5
6DC5
330
A
100
AcDbEntity
  8
0
  6
Continuous
 62
     9
100
AcDbLine
 10
103.0342639999999
 20
-44.66712900000015
 30
0.0
 11
102.497608
 21
-45.10530700000015
 31
0.0
  0
LINE
  5
6DC6
330
A
100
AcDbEntity
  8
0
  6
Continuous
 62
     9
100
AcDbLine
 10
102.497608
 20
-45.10530700000015
 30
0.0
 11
102.1398369999999
 21
-45.3974250000001
 31
0.0
  0
LINE
  5
6DC7
330
A
100
AcDbEntity
  8
0
  6
Continuous
 62
     7
100
AcDbLine
 10
103.0342639999999
 20
-44.66712900000015
 30
0.0
 11
145.2512279999999
 21
-53.2846300000001
 31
0.0
  0
ELLIPSE
  5
6DC8
330
A
100
AcDbEntity
  8
0
  6
Continuous
 62
     7
100
AcDbEllipse
 10
103.0342639999999
 20
-48.68376099999999
 30
0.0
 11
-2.782804340963423
 21
3.408225344650126
 31
0.0
210
0.0
220
0.0
230
1.0
 40
0.8164970000000002
 41
5.497787143778494
 42
6.283185307179584
  0
ELLIPSE
  5
6DC9
330
A
100
AcDbEntity
  8
0
  6
Continuous
 62
     7
100
AcDbEllipse
 10
102.1398369999999
 20
-49.41405799999995
 30
0.0
 11
-2.782804340963423
 21
3.408225344650126
 31
0.0
210
0.0
220
0.0
230
1.0
 40
0.8164970000000002
 41
5.497787143778493
 42
6.283185307179584
  0
ELLIPSE
  5
6DCA
330
A
100
AcDbEntity
  8
0
  6
Continuous
 62
     7
100
AcDbEllipse
 10
113.7673909999999
 20
-57.44732199999997
 30
0.0
 11
4.806662043482261
 21
-5.886934686213705
 31
0.0000000000000003
210
0.0
220
0.0
230
1.0
 40
0.816497
 41
2.030311532971273
 42
2.682077447406105
  0
ELLIPSE
  5
6DCB
330
A
100
AcDbEntity
  8
0
  6
Continuous
 62
     7
100
AcDbEllipse
 10
145.4301129999999
 20
-52.04312600000003
 30
0.0
 11
-5.599999999999988
 21
0.0
 31
0.0
210
0.0
220
0.0
230
1.0
 40
0.4082480000000003
 41
2.67794504459264
 42
3.141592653589792
  0
LINE
  5
6DCC
330
A
100
AcDbEntity
  8
0
  6
Continuous
 62
     7
100
AcDbLine
 10
150.0811349999999
 20
-53.35766000000011
 30
0.0
 11
150.438906
 21
-53.06554100000017
 31
0.0
  0
LINE
  5
6DCD
330
A
100
AcDbEntity
  8
0
  6
Continuous
 62
     7
100
AcDbLine
 10
97.84658699999996
 20
-42.69532699999979
 30
0.0
 11
150.0811349999999
 21
-53.35766000000011
 31
0.0
  0
LINE
  5
6DCE
330
A
100
AcDbEntity
  8
0
  6
Continuous
 62
     7
100
AcDbLine
 10
97.84658699999996
 20
-42.69532699999979
 30
0.0
 11
98.47984099999999
 21
-42.17827699999997
 31
0.0
  0
LINE
  5
6DCF
330
A
100
AcDbEntity
  8
0
  6
Continuous
 62
     7
100
AcDbLine
 10
99.17346799999998
 20
-41.7173580000001
 30
0.0
 11
98.47984099999999
 21
-42.17827699999997
 31
0.0
  0
ELLIPSE
  5
6DD0
330
A
100
AcDbEntity
  8
0
  6
Continuous
 62
     7
100
AcDbEllipse
 10
100.195924
 20
-41.97380299999998
 30
0.0
 11
-1.200000000000004
 21
0.0
 31
-0.0000000000000001
210
-0.0000000000000001
220
0.0000000000000001
230
1.0
 40
0.4082480000000002
 41
4.926138023213659
 42
5.732271235582642
  0
ELLIPSE
  5
6DD1
330
A
100
AcDbEntity
  8
0
  6
Continuous
 62
     7
100
AcDbEllipse
 10
102.486875
 20
-46.28254500000013
 30
0.0
 11
-11.99999999999993
 21
0.0
 31
0.0000000000000007
210
0.0000000000000001
220
0.0
230
1.0
 40
0.4082480000000001
 41
4.422752504526643
 42
4.926138023213675
  0
LINE
  5
6DD2
330
A
100
AcDbEntity
  8
0
  6
Continuous
 62
     7
100
AcDbLine
 10
107.935725
 20
-41.83357699999999
 30
0.0
 11
105.914121
 21
-41.587619
 31
0.0
  0
LINE
  5
6DD3
330
A
100
AcDbEntity
  8
0
  6
Continuous
 62
     7
100
AcDbLine
 10
107.935725
 20
-41.83357699999999
 30
0.0
 11
147.934509
 21
-49.99829499999997
 31
0.0
  0
LINE
  5
6DD4
330
A
100
AcDbEntity
  8
0
  6
Continuous
 62
     7
100
AcDbLine
 10
150.0811349999999
 20
-53.35766000000011
 30
0.0
 11
150.0811349999999
 21
-55.38925400000015
 31
0.0
  0
LINE
  5
6DD5
330
A
100
AcDbEntity
  8
0
  6
Continuous
 62
     9
100
AcDbLine
 10
150.438906
 20
-55.07572300000015
 30
0.0
 11
150.438906
 21
-53.06554100000017
 31
0.0
  0
LINE
  5
6DD6
330
A
100
AcDbEntity
  8
0
  6
Continuous
 62
     7
100
AcDbLine
 10
97.84658699999996
 20
-47.6248310000002
 30
0.0
 11
97.84658699999996
 21
-42.69532699999979
 31
0.0
  0
ELLIPSE
  5
6DD7
330
A
100
AcDbEntity
  8
0
  6
Continuous
 62
     7
100
AcDbEllipse
 10
145.072342
 20
-57.44732199999997
 30
0.0
 11
-3.035786553778285
 21
3.718064012345534
 31
0.0
210
0.0
220
0.0
230
1.0
 40
0.816497
 41
4.379261637757625
 42
5.497787143778473
  0
LINE
  5
6DD8
330
A
100
AcDbEntity
  8
0
  6
Continuous
 62
     7
100
AcDbLine
 10
102.8553789999999
 20
-44.44803999999999
 30
0.0
 11
145.072342
 21
-53.06554100000017
 31
0.0
  0
ELLIPSE
  5
6DD9
330
A
100
AcDbEntity
  8
0
  6
Continuous
 62
     7
100
AcDbEllipse
 10
102.8553789999999
 20
-48.82982000000016
 30
0.0
 11
-3.035786553778285
 21
3.718064012345534
 31
-0.0000000000000002
210
0.0
220
0.0
230
1.0
 40
0.816497
 41
0.0
 42
0.4742520012737555
  0
ELLIPSE
  5
6DDA
330
A
100
AcDbEntity
  8
0
  6
Continuous
 62
     7
100
AcDbEllipse
 10
145.4301129999999
 20
-52.04312600000003
 30
0.0
 11
-5.599999999999988
 21
0.0
 31
0.0000000000000004
210
0.0000000000000001
220
0.0000000000000001
230
1.0
 40
0.4082480000000003
 41
3.141592653589792
 42
4.248741371387526
  0
ELLIPSE
  5
6DDB
330
A
100
AcDbEntity
  8
0
  6
Continuous
 62
     7
100
AcDbEllipse
 10
103.0342639999999
 20
-48.68376099999999
 30
0.0
 11
-3.035786553778285
 21
3.718064012345534
 31
-0.0000000000000002
210
0.0
220
0.0
230
1.0
 40
0.816497
 41
0.0294670467124045
 42
0.4316516343003343
  0
ELLIPSE
  5
6DDC
330
A
100
AcDbEntity
  8
0
  6
Continuous
 62
     7
100
AcDbEllipse
 10
102.8553789999999
 20
-48.82982000000016
 30
0.0
 11
-3.035786553778258
 21
3.718064012345533
 31
0.0
210
-0.0000000000000001
220
0.0
230
1.0
 40
0.816497
 41
5.497787143778488
 42
6.283185307179588
  0
ELLIPSE
  5
6DDD
330
A
100
AcDbEntity
  8
0
  6
Continuous
 62
     7
100
AcDbEllipse
 10
93.01238899999999
 20
-47.83913499999993
 30
0.0
 11
-1.200000000000034
 21
0.0
 31
0.0
210
0.0
220
0.0
230
1.0
 40
0.4082480000000002
 41
5.906804160782193
 42
6.283185307179584
  0
LINE
  5
6DDE
330
A
100
AcDbEntity
  8
0
  6
Continuous
 62
     7
100
AcDbLine
 10
92.38342499999999
 20
-47.15597999999999
 30
0.0
 11
91.896388
 21
-47.65906900000015
 31
0.0
  0
LINE
  5
6DDF
330
A
100
AcDbEntity
  8
0
  6
Continuous
 62
     7
100
AcDbLine
 10
92.38342499999999
 20
-47.15597999999999
 30
0.0
 11
93.01667999999999
 21
-46.63892999999996
 31
0.0
  0
LINE
  5
6DE0
330
A
100
AcDbEntity
  8
0
  6
Continuous
 62
     7
100
AcDbLine
 10
93.01667999999999
 20
-46.63892999999996
 30
0.0
 11
145.2512279999999
 21
-57.30126200000029
 31
0.0
  0
LINE
  5
6DE1
330
A
100
AcDbEntity
  8
0
  6
Continuous
 62
     7
100
AcDbLine
 10
144.893457
 20
-57.59338099999979
 30
0.0
 11
145.2512279999999
 21
-57.30126200000029
 31
0.0
  0
ELLIPSE
  5
6DE2
330
A
100
AcDbEntity
  8
0
  6
Continuous
 62
     7
100
AcDbEllipse
 10
139.884665
 20
-56.570966
 30
0.0
 11
-5.599999999999988
 21
0.0
 31
0.0
210
0.0
220
0.0
230
1.0
 40
0.4082480000000003
 41
1.107148717797734
 42
2.677945044592634
  0
LINE
  5
6DE3
330
A
100
AcDbEntity
  8
0
  6
Continuous
 62
     7
100
AcDbLine
 10
97.38148499999995
 20
-50.45107900000015
 30
0.0
 11
137.380269
 21
-58.61579699999992
 31
0.0
  0
LINE
  5
6DE4
330
A
100
AcDbEntity
  8
0
  6
Continuous
 62
     7
100
AcDbLine
 10
95.68654399999999
 20
-49.9384010000001
 30
0.0
 11
97.38148499999995
 21
-50.45107900000015
 31
0.0
  0
ELLIPSE
  5
6DE5
330
A
100
AcDbEntity
  8
0
  6
Continuous
 62
     7
100
AcDbEllipse
 10
102.830335
 20
-46.002111
 30
0.0
 11
-12.00000000000001
 21
0.0
 31
0.0
210
0.0
220
0.0
230
1.0
 40
0.4082480000000002
 41
0.4297520659716055
 42
0.9331375846586368
  0
LINE
  5
6DE6
330
A
100
AcDbEntity
  8
0
  6
Continuous
 62
     9
100
AcDbLine
 10
144.893457
 20
-57.59338099999979
 30
0.0
 11
144.893457
 21
-58.97619999999995
 31
0.0
  0
ELLIPSE
  5
6DE7
330
A
100
AcDbEntity
  8
0
  6
Continuous
 62
     7
100
AcDbEllipse
 10
139.884665
 20
-73.36779100000012
 30
0.0
 11
-5.599999999999988
 21
0.0
 31
0.0
210
0.0
220
0.0
230
1.0
 40
0.4082480000000003
 41
1.107148717797734
 42
1.376766030183997
  0
LINE
  5
6DE8
330
A
100
AcDbEntity
  8
0
  6
Continuous
 62
     9
100
AcDbLine
 10
137.380269
 20
-75.412622
 30
0.0
 11
137.380269
 21
-58.61579699999992
 31
0.0
  0
LINE
  5
6DE9
330
A
100
AcDbEntity
  8
0
  6
Continuous
 62
     7
100
AcDbLine
 10
128.916013
 20
-74.01349599999997
 30
0.0
 11
107.685286
 21
-69.67979200000002
 31
0.0
  0
ELLIPSE
  5
6DEA
330
A
100
AcDbEntity
  8
0
  6
Continuous
 62
     7
100
AcDbEllipse
 10
107.685286
 20
-70.775237
 30
0.0
 11
-0.7589466384446132
 21
0.9295160030864392
 31
0.0
210
0.0
220
0.0
230
0.9999999999999998
 40
0.816497
 41
0.0
 42
0.7853981633937142
  0
LINE
  5
6DEB
330
A
100
AcDbEntity
  8
0
  6
Continuous
 62
     7
100
AcDbLine
 10
106.611973
 20
-70.55614800000019
 30
0.0
 11
106.611973
 21
-112.9863889999999
 31
0.0
  0
ELLIPSE
  5
6DEC
330
A
100
AcDbEntity
  8
0
  6
Continuous
 62
     7
100
AcDbEllipse
 10
107.685286
 20
-113.205478
 30
0.0
 11
-0.7589466384445576
 21
0.9295160030863836
 31
0.0
210
0.0
220
0.0
230
0.9999999999999998
 40
0.816497
 41
0.7853981633937936
 42
2.356194490188712
  0
LINE
  5
6DED
330
A
100
AcDbEntity
  8
0
  6
Continuous
 62
     7
100
AcDbLine
 10
107.685286
 20
-114.3009230000001
 30
0.0
 11
128.916013
 21
-118.6346269999999
 31
0.0
  0
ELLIPSE
  5
6DEE
330
A
100
AcDbEntity
  8
0
  6
Continuous
 62
     7
100
AcDbEllipse
 10
129.5093089999999
 20
-117.8428620000001
 30
0.0
 11
0.7589466384445576
 21
-0.9295160030863836
 31
0.0
210
0.0
220
0.0
230
0.9999999999999998
 40
0.816497
 41
4.912101600321276
 42
5.497787143778462
  0
LINE
  5
6DEF
330
A
100
AcDbEntity
  8
0
  6
Continuous
 62
     7
100
AcDbLine
 10
129.5093089999999
 20
-118.938308
 30
0.0
 11
129.5093089999999
 21
-119.084367
 31
0.0
  0
LINE
  5
6DF0
330
A
100
AcDbEntity
  8
0
  6
Continuous
 62
     7
100
AcDbLine
 10
129.5093089999999
 20
-119.084367
 30
0.0
 11
137.380269
 21
-120.6910200000001
 31
0.0
  0
LINE
  5
6DF1
330
A
100
AcDbEntity
  8
0
  6
Continuous
 62
     9
100
AcDbLine
 10
137.380269
 20
-137.487845
 30
0.0
 11
137.380269
 21
-120.6910200000001
 31
0.0
  0
LINE
  5
6DF2
330
A
100
AcDbEntity
  8
0
  6
Continuous
 62
     7
100
AcDbLine
 10
137.380269
 20
-137.487845
 30
0.0
 11
97.38148499999995
 21
-129.3231269999998
 31
0.0
  0
LINE
  5
6DF3
330
A
100
AcDbEntity
  8
0
  6
Continuous
 62
     7
100
AcDbLine
 10
97.38148499999995
 20
-129.3231269999998
 30
0.0
 11
97.38148499999995
 21
-50.45107900000015
 31
0.0
  0
LINE
  5
6DF4
330
A
100
AcDbEntity
  8
0
  6
Continuous
 62
     7
100
AcDbLine
 10
137.380269
 20
-75.412622
 30
0.0
 11
129.5093089999999
 21
-73.80596900000019
 31
0.0
  0
LINE
  5
6DF5
330
A
100
AcDbEntity
  8
0
  6
Continuous
 62
     7
100
AcDbLine
 10
129.5093089999999
 20
-73.80596900000019
 30
0.0
 11
129.5093089999999
 21
-73.95202800000004
 31
0.0
  0
ELLIPSE
  5
6DF6
330
A
100
AcDbEntity
  8
0
  6
Continuous
 62
     7
100
AcDbEllipse
 10
129.5093089999999
 20
-75.04747300000002
 30
0.0
 11
0.7589466384446131
 21
-0.9295160030863836
 31
0.0
210
0.0000000000000001
220
0.0000000000000001
230
0.9999999999999998
 40
0.816497
 41
2.356194490188584
 42
2.941880033645738
  0
LINE
  5
6DF7
330
A
100
AcDbEntity
  8
0
  6
Continuous
 62
     7
100
AcDbLine
 10
145.2512279999999
 20
-57.30126200000029
 30
0.0
 11
145.2512279999999
 21
-58.77068099999998
 31
0.0
  0
LINE
  5
6DF8
330
A
100
AcDbEntity
  8
0
  6
Continuous
 62
     7
100
AcDbLine
 10
129.5093089999999
 20
-73.95202800000004
 30
0.0
 11
129.652418
 21
-73.83518099999998
 31
0.0
  0
LINE
  5
6DF9
330
A
100
AcDbEntity
  8
0
  6
Continuous
 62
     9
100
AcDbLine
 10
95.68654399999999
 20
-49.9384010000001
 30
0.0
 11
95.68654399999999
 21
-128.810449
 31
0.0
  0
LINE
  5
6DFA
330
A
100
AcDbEntity
  8
0
  6
Continuous
 62
     7
100
AcDbLine
 10
97.38148499999995
 20
-129.3231269999998
 30
0.0
 11
95.68654399999999
 21
-128.810449
 31
0.0
  0
LINE
  5
6DFB
330
A
100
AcDbEntity
  8
0
  6
Continuous
 62
     9
100
AcDbLine
 10
91.92150599999996
 20
-48.04324900000029
 30
0.0
 11
91.92150599999996
 21
-126.9152969999999
 31
0.0
  0
ELLIPSE
  5
6DFC
330
A
100
AcDbEntity
  8
0
  6
Continuous
 62
     7
100
AcDbEllipse
 10
102.830335
 20
-124.8741589999999
 30
0.0
 11
12.00000000000001
 21
-0.0000000000000555
 31
0.0
210
0.0
220
0.0000000000000001
230
1.0
 40
0.4082480000000002
 41
3.571344719561412
 42
4.074730238248431
  0
ELLIPSE
  5
6DFD
330
A
100
AcDbEntity
  8
0
  6
Continuous
 62
     7
100
AcDbEllipse
 10
107.685286
 20
-70.775237
 30
0.0
 11
-0.7589466384446132
 21
0.9295160030864392
 31
0.0
210
0.0
220
0.0
230
0.9999999999999998
 40
0.816497
 41
5.497787143778515
 42
6.283185307179584
  0
LINE
  5
6DFE
330
A
100
AcDbEntity
  8
0
  6
Continuous
 62
     9
100
AcDbLine
 10
107.685286
 20
-69.67979200000002
 30
0.0
 11
106.611973
 21
-70.55614800000019
 31
0.0
  0
LINE
  5
6DFF
330
A
100
AcDbEntity
  8
0
  6
Continuous
 62
     9
100
AcDbLine
 10
106.611973
 20
-112.9863889999999
 30
0.0
 11
112.00609
 21
-108.5821110000001
 31
0.0
  0
ELLIPSE
  5
6E00
330
A
100
AcDbEntity
  8
0
  6
Continuous
 62
     7
100
AcDbEllipse
 10
93.01238899999999
 20
-47.83913499999993
 30
0.0
 11
-1.200000000000034
 21
0.0
 31
0.0
210
0.0
220
0.0
230
1.0
 40
0.4082480000000002
 41
6.283185307179584
 42
6.712937373151151
  0
ELLIPSE
  5
6E01
330
A
100
AcDbEntity
  8
0
  6
Continuous
 62
     7
100
AcDbEllipse
 10
93.01238899999999
 20
-126.7111830000003
 30
0.0
 11
1.200000000000034
 21
-0.0000000000000555
 31
-0.0000000000000001
210
0.0000000000000001
220
0.0
230
1.0
 40
0.4082480000000002
 41
3.141592653589884
 42
3.571344719561436
  0
ELLIPSE
  5
6E02
330
A
100
AcDbEntity
  8
0
  6
Continuous
 62
     7
100
AcDbEllipse
 10
139.884665
 20
-118.646189
 30
0.0
 11
5.599999999999988
 21
0.0
 31
0.0
210
0.0
220
0.0
230
1.0
 40
0.4082480000000003
 41
4.248741371387526
 42
4.518358683773787
  0
LINE
  5
6E03
330
A
100
AcDbEntity
  8
0
  6
Continuous
 62
     7
100
AcDbLine
 10
129.5093089999999
 20
-119.084367
 30
0.0
 11
130.224851
 21
-118.500129
 31
0.0
  0
ELLIPSE
  5
6E04
330
A
100
AcDbEntity
  8
0
  6
Continuous
 62
     7
100
AcDbEllipse
 10
139.884665
 20
-135.4430139999999
 30
0.0
 11
5.599999999999988
 21
0.0
 31
0.0
210
0.0
220
0.0
230
1.0
 40
0.4082480000000003
 41
4.248741371387535
 42
4.518358683773795
  0
LINE
  5
6E05
330
A
100
AcDbEntity
  8
0
  6
Continuous
 62
     7
100
AcDbLine
 10
128.916013
 20
-118.6346269999999
 30
0.0
 11
129.309561
 21
-118.3132970000001
 31
0.0
  0
LINE
  5
6E06
330
A
100
AcDbEntity
  8
0
  6
Continuous
 62
     7
100
AcDbLine
 10
130.0817429999999
 20
-118.470918
 30
0.0
 11
129.5093089999999
 21
-118.938308
 31
0.0
  0
LINE
  5
6E07
330
A
100
AcDbEntity
  8
0
  6
Continuous
 62
     9
100
AcDbLine
 10
112.00609
 20
-110.7730009999999
 30
0.0
 11
107.685286
 21
-114.3009230000001
 31
0.0
  0
ELLIPSE
  5
6E08
330
A
100
AcDbEntity
  8
0
  6
Continuous
 62
     7
100
AcDbEllipse
 10
152.22776
 20
-95.78790099999997
 30
0.0
 11
2.351999999646912
 21
11.52239975012414
 31
-0.0000000000000008
210
0.0
220
0.0000000000000001
230
1.0
 40
0.4082480000000002
 41
5.819537698253842
 42
6.74683291616788
  0
ELLIPSE
  5
6E09
330
A
100
AcDbEntity
  8
0
  6
Continuous
 62
     7
100
AcDbEllipse
 10
152.22776
 20
-95.78790099999997
 30
0.0
 11
2.351999999646912
 21
11.52239975012414
 31
0.0
210
0.0
220
0.0
230
1.0
 40
0.4082480000000002
 41
3.605240262515543
 42
5.819537698253842
  0
ELLIPSE
  5
6E0A
330
A
100
AcDbEntity
  8
0
  6
Continuous
 62
     7
100
AcDbEllipse
 10
152.013097
 20
-95.74408299999999
 30
0.0
 11
-2.399999999639689
 21
-11.75755076543283
 31
0.0
210
0.0
220
0.0
230
0.9999999999999998
 40
0.4082480000000001
 41
0.0
 42
0.4636476089257471
  0
ELLIPSE
  5
6E0B
330
A
100
AcDbEntity
  8
0
  6
Continuous
 62
     7
100
AcDbEllipse
 10
152.22776
 20
-95.78790099999997
 30
0.0
 11
2.351999999646912
 21
11.52239975012414
 31
0.0
210
0.0
220
0.0
230
1.0
 40
0.4082480000000002
 41
0.4636476089882944
 42
3.605240262515543
  0
ELLIPSE
  5
6E0C
330
A
100
AcDbEntity
  8
0
  6
Continuous
 62
     7
100
AcDbEllipse
 10
152.013097
 20
-95.74408299999999
 30
0.0
 11
-2.399999999639689
 21
-11.75755076543283
 31
0.0
210
0.0
220
0.0
230
0.9999999999999998
 40
0.4082480000000001
 41
3.1415926535898
 42
3.605240262578091
  0
ELLIPSE
  5
6E0D
330
A
100
AcDbEntity
  8
0
  6
Continuous
 62
     7
100
AcDbEllipse
 10
152.013097
 20
-95.74408299999999
 30
0.0
 11
-2.399999999639689
 21
-11.75755076543283
 31
0.0
210
0.0
220
0.0
230
0.9999999999999998
 40
0.4082480000000001
 41
5.456902087621915
 42
6.28318530717958
  0
ELLIPSE
  5
6E0E
330
A
100
AcDbEntity
  8
0
  6
Continuous
 62
     7
100
AcDbEllipse
 10
152.013097
 20
-95.74408299999999
 30
0.0
 11
-2.399999999639743
 21
-11.75755076543284
 31
0.0000000000000008
210
0.0
220
0.0000000000000001
230
0.9999999999999998
 40
0.4082480000000003
 41
3.605240262578091
 42
3.967875871071931
  0
ELLIPSE
  5
6E0F
330
A
100
AcDbEntity
  8
0
  6
Continuous
 62
     7
100
AcDbEllipse
 10
152.013097
 20
-95.74408299999999
 30
0.0
 11
-2.399999999639689
 21
-11.75755076543283
 31
0.0
210
0.0
220
0.0
230
0.9999999999999998
 40
0.4082480000000001
 41
2.677945044664048
 42
3.141592653589794
  0
ELLIPSE
  5
6E10
330
A
100
AcDbEntity
  8
0
  6
Continuous
 62
     7
100
AcDbEllipse
 10
152.22776
 20
-86.29404299999999
 30
0.0
 11
-0.247999999962778
 21
-1.214946912428072
 31
0.0
210
0.0
220
0.0
230
1.0
 40
0.4082480000000001
 41
0.0
 42
0.4636476089883053
  0
ELLIPSE
  5
6E11
330
A
100
AcDbEntity
  8
0
  6
Continuous
 62
     7
100
AcDbEllipse
 10
152.22776
 20
-105.2817580000001
 30
0.0
 11
-0.247999999962778
 21
-1.214946912428072
 31
0.0
210
0.0
220
0.0
230
1.0
 40
0.4082480000000001
 41
0.0
 42
0.4636476089882935
  0
ELLIPSE
  5
6E12
330
A
100
AcDbEntity
  8
0
  6
Continuous
 62
     7
100
AcDbEllipse
 10
156.8787809999999
 20
-91.99035800000002
 30
0.0
 11
-0.247999999962778
 21
-1.214946912428014
 31
0.0
210
0.0
220
0.0
230
1.0
 40
0.4082480000000003
 41
0.0000000000000437
 42
0.4636476089882696
  0
ELLIPSE
  5
6E13
330
A
100
AcDbEntity
  8
0
  6
Continuous
 62
     7
100
AcDbEllipse
 10
147.5767389999999
 20
-99.58544400000015
 30
0.0
 11
-0.247999999962778
 21
-1.214946912428072
 31
0.0
210
0.0
220
0.0
230
1.0
 40
0.4082480000000001
 41
6.283185307179486
 42
6.746832916167923
  0
ELLIPSE
  5
6E14
330
A
100
AcDbEntity
  8
0
  6
Continuous
 62
     7
100
AcDbEllipse
 10
147.5767389999999
 20
-99.58544400000015
 30
0.0
 11
-0.247999999962778
 21
-1.214946912428072
 31
0.0000000000000001
210
0.0
220
0.0000000000000001
230
1.0
 40
0.4082480000000001
 41
0.4636476089883371
 42
3.141592653589916
  0
ELLIPSE
  5
6E15
330
A
100
AcDbEntity
  8
0
  6
Continuous
 62
     7
100
AcDbEllipse
 10
147.5767389999999
 20
-99.58544400000015
 30
0.0
 11
-0.247999999962778
 21
-1.214946912428072
 31
0.0000000000000001
210
0.0
220
0.0000000000000001
230
1.0
 40
0.4082480000000001
 41
3.141592653589917
 42
6.283185307179541
  0
ELLIPSE
  5
6E16
330
A
100
AcDbEntity
  8
0
  6
Continuous
 62
     7
100
AcDbEllipse
 10
152.22776
 20
-86.29404299999999
 30
0.0
 11
-0.247999999962778
 21
-1.214946912428072
 31
0.0000000000000001
210
0.0
220
0.0000000000000001
230
1.0
 40
0.4082480000000001
 41
0.4636476089883053
 42
3.141592653589792
  0
ELLIPSE
  5
6E17
330
A
100
AcDbEntity
  8
0
  6
Continuous
 62
     7
100
AcDbEllipse
 10
152.22776
 20
-86.29404299999999
 30
0.0
 11
-0.247999999962778
 21
-1.214946912428072
 31
0.0000000000000001
210
0.0
220
0.0000000000000001
230
1.0
 40
0.4082480000000001
 41
3.141592653589792
 42
6.283185307179584
  0
ELLIPSE
  5
6E18
330
A
100
AcDbEntity
  8
0
  6
Continuous
 62
     7
100
AcDbEllipse
 10
152.22776
 20
-105.2817580000001
 30
0.0
 11
-0.247999999962778
 21
-1.214946912428072
 31
0.0000000000000001
210
0.0
220
0.0000000000000001
230
1.0
 40
0.4082480000000001
 41
0.4636476089882935
 42
3.14159265358974
  0
ELLIPSE
  5
6E19
330
A
100
AcDbEntity
  8
0
  6
Continuous
 62
     7
100
AcDbEllipse
 10
152.22776
 20
-105.2817580000001
 30
0.0
 11
-0.247999999962778
 21
-1.214946912428072
 31
0.0000000000000001
210
0.0
220
0.0000000000000001
230
1.0
 40
0.4082480000000001
 41
3.141592653589741
 42
6.283185307179584
  0
ELLIPSE
  5
6E1A
330
A
100
AcDbEntity
  8
0
  6
Continuous
 62
     7
100
AcDbEllipse
 10
156.8787809999999
 20
-91.99035800000002
 30
0.0
 11
-0.247999999962778
 21
-1.214946912428014
 31
0.0000000000000001
210
0.0
220
0.0000000000000001
230
1.0
 40
0.4082480000000003
 41
0.4636476089882696
 42
3.141592653589758
  0
ELLIPSE
  5
6E1B
330
A
100
AcDbEntity
  8
0
  6
Continuous
 62
     7
100
AcDbEllipse
 10
156.8787809999999
 20
-91.99035800000002
 30
0.0
 11
-0.247999999962778
 21
-1.214946912428014
 31
0.0000000000000001
210
0.0
220
0.0000000000000001
230
1.0
 40
0.4082480000000003
 41
3.141592653589756
 42
6.283185307179627
  0
ELLIPSE
  5
6E1C
330
A
100
AcDbEntity
  8
0
  6
Continuous
 62
     7
100
AcDbEllipse
 10
145.072342
 20
-72.41840500000002
 30
0.0
 11
0.42399999999998
 21
2.077167301880121
 31
0.0
210
0.0
220
0.0
230
1.0
 40
0.4082480000000002
 41
2.03444393579568
 42
3.141592653589746
  0
ELLIPSE
  5
6E1D
330
A
100
AcDbEntity
  8
0
  6
Continuous
 62
     7
100
AcDbEllipse
 10
145.072342
 20
-130.8421440000001
 30
0.0
 11
0.42399999999998
 21
2.077167301880121
 31
0.0
210
0.0
220
0.0
230
1.0
 40
0.4082480000000002
 41
2.0344439357957
 42
3.141592653589818
  0
LINE
  5
6E1E
330
A
100
AcDbEntity
  8
0
  6
Continuous
 62
     7
100
AcDbLine
 10
162.066459
 20
-127.1906610000001
 30
0.0
 11
162.066459
 21
-48.31861200000014
 31
0.0
  0
LINE
  5
6E1F
330
A
100
AcDbEntity
  8
0
  6
Continuous
 62
     7
100
AcDbLine
 10
142.389061
 20
-143.257189
 30
0.0
 11
162.066459
 21
-127.1906610000001
 31
0.0
  0
LINE
  5
6E20
330
A
100
AcDbEntity
  8
0
  6
Continuous
 62
     7
100
AcDbLine
 10
142.389061
 20
-143.257189
 30
0.0
 11
142.389061
 21
-64.38514100000015
 31
0.0
  0
LINE
  5
6E21
330
A
100
AcDbEntity
  8
0
  6
Continuous
 62
     7
100
AcDbLine
 10
142.389061
 20
-64.38514100000015
 30
0.0
 11
162.066459
 21
-48.31861200000014
 31
0.0
  0
ELLIPSE
  5
6E22
330
A
100
AcDbEntity
  8
0
  6
Continuous
 62
     7
100
AcDbEllipse
 10
155.089927
 20
-107.3265889999999
 30
0.0
 11
0.2240000000000019
 21
1.0973714047669
 31
0.0
210
0.0
220
0.0
230
1.0
 40
0.4082480000000002
 41
2.03444393579566
 42
3.141592653589781
  0
ELLIPSE
  5
6E23
330
A
100
AcDbEntity
  8
0
  6
Continuous
 62
     7
100
AcDbEllipse
 10
159.383178
 20
-60.73365700000015
 30
0.0
 11
0.42399999999998
 21
2.077167301880121
 31
0.0
210
0.0
220
0.0
230
1.0
 40
0.4082480000000002
 41
2.034443935795752
 42
3.141592653589843
  0
ELLIPSE
  5
6E24
330
A
100
AcDbEntity
  8
0
  6
Continuous
 62
     7
100
AcDbEllipse
 10
159.383178
 20
-119.1573969999999
 30
0.0
 11
0.42399999999998
 21
2.077167301880121
 31
0.0
210
0.0
220
0.0
230
1.0
 40
0.4082480000000002
 41
2.034443935795728
 42
3.141592653589843
  0
ELLIPSE
  5
6E25
330
A
100
AcDbEntity
  8
0
  6
Continuous
 62
     7
100
AcDbEllipse
 10
151.5122179999999
 20
-110.247776
 30
0.0
 11
0.240000000000018
 21
1.175755076535944
 31
0.0
210
0.0
220
0.0
230
1.0
 40
0.4082480000000002
 41
2.034443935795636
 42
3.141592653589746
  0
LINE
  5
6E26
330
A
100
AcDbEntity
  8
0
  6
Continuous
 62
     7
100
AcDbLine
 10
151.5122179999999
 20
-111.343221
 30
0.0
 11
152.943302
 21
-110.1747469999999
 31
0.0
  0
ELLIPSE
  5
6E27
330
A
100
AcDbEntity
  8
0
  6
Continuous
 62
     7
100
AcDbEllipse
 10
152.943302
 20
-109.079301
 30
0.0
 11
0.240000000000018
 21
1.175755076535944
 31
-0.0000000000000001
210
0.0
220
0.0000000000000001
230
1.0
 40
0.4082480000000002
 41
3.605240262590601
 42
5.176036589385486
  0
ELLIPSE
  5
6E28
330
A
100
AcDbEntity
  8
0
  6
Continuous
 62
     7
100
AcDbEllipse
 10
152.943302
 20
-109.079301
 30
0.0
 11
0.240000000000018
 21
1.175755076535944
 31
0.0
210
0.0
220
0.0
230
1.0
 40
0.4082480000000002
 41
5.176036589385486
 42
6.28318530717954
  0
LINE
  5
6E29
330
A
100
AcDbEntity
  8
0
  6
Continuous
 62
     7
100
AcDbLine
 10
152.943302
 20
-107.9838559999999
 30
0.0
 11
151.5122179999999
 21
-109.1523309999999
 31
0.0
  0
ELLIPSE
  5
6E2A
330
A
100
AcDbEntity
  8
0
  6
Continuous
 62
     7
100
AcDbEllipse
 10
151.5122179999999
 20
-110.247776
 30
0.0
 11
0.240000000000018
 21
1.175755076535944
 31
-0.0000000000000001
210
0.0
220
0.0000000000000001
230
1.0
 40
0.4082480000000002
 41
0.4636476090008081
 42
2.034443935795636
  0
ELLIPSE
  5
6E2B
330
A
100
AcDbEntity
  8
0
  6
Continuous
 62
     7
100
AcDbEllipse
 10
152.22776
 20
-95.78790099999997
 30
0.0
 11
-2.479999999999977
 21
-12.14946912420456
 31
0.0
210
0.0
220
0.0
230
0.9999999999999998
 40
0.4082480000000002
 41
3.605240262590596
 42
5.17603658938549
  0
LINE
  5
6E2C
330
A
100
AcDbEntity
  8
0
  6
Continuous
 62
     7
100
AcDbLine
 10
139.026015
 20
-142.5707099999999
 30
0.0
 11
142.389061
 21
-143.257189
 31
0.0
  0
LINE
  5
6E2D
330
A
100
AcDbEntity
  8
0
  6
Continuous
 62
     9
100
AcDbLine
 10
139.026015
 20
-63.69866200000013
 30
0.0
 11
139.026015
 21
-142.5707099999999
 31
0.0
  0
LINE
  5
6E2E
330
A
100
AcDbEntity
  8
0
  6
Continuous
 62
     7
100
AcDbLine
 10
139.026015
 20
-63.69866200000013
 30
0.0
 11
142.389061
 21
-64.38514100000015
 31
0.0
  0
ELLIPSE
  5
6E2F
330
A
100
AcDbEntity
  8
0
  6
Continuous
 62
     7
100
AcDbEllipse
 10
139.2049
 20
-63.55260199999998
 30
0.0
 11
-0.4000000000000116
 21
0.0
 31
0.0
210
0.0
220
0.0
230
0.9999999999999998
 40
0.4082480000000002
 41
5.819537698178526
 42
6.283185307179584
  0
LINE
  5
6E30
330
A
100
AcDbEntity
  8
0
  6
Continuous
 62
     7
100
AcDbLine
 10
143.319265
 20
-59.82808899999998
 30
0.0
 11
138.847129
 21
-63.47957300000014
 31
0.0
  0
ELLIPSE
  5
6E31
330
A
100
AcDbEntity
  8
0
  6
Continuous
 62
     7
100
AcDbEllipse
 10
98.77421700000002
 20
-45.44071799999993
 30
0.0
 11
56.79999999999999
 21
0.0
 31
0.0
210
0.0
220
0.0
230
1.0
 40
0.4082480000000002
 41
5.613865382281246
 42
6.025210014076307
  0
LINE
  5
6E32
330
A
100
AcDbEntity
  8
0
  6
Continuous
 62
     7
100
AcDbLine
 10
158.166757
 20
-47.70516299999997
 30
0.0
 11
153.694621
 21
-51.35664699999995
 31
0.0
  0
ELLIPSE
  5
6E33
330
A
100
AcDbEntity
  8
0
  6
Continuous
 62
     7
100
AcDbEllipse
 10
158.5245270000001
 20
-47.7781930000001
 30
0.0
 11
-0.4000000000000116
 21
0.0
 31
0.0
210
0.0
220
0.0
230
0.9999999999999998
 40
0.4082480000000002
 41
4.248741371384006
 42
5.819537698178526
  0
LINE
  5
6E34
330
A
100
AcDbEntity
  8
0
  6
Continuous
 62
     7
100
AcDbLine
 10
162.066459
 20
-48.31861200000014
 30
0.0
 11
158.703413
 21
-47.63213299999995
 31
0.0
  0
ELLIPSE
  5
6E35
330
A
100
AcDbEntity
  8
0
  6
Continuous
 62
     7
100
AcDbEllipse
 10
139.2049
 20
-63.55260199999998
 30
0.0
 11
-0.4000000000000116
 21
0.0
 31
0.0
210
0.0
220
0.0
230
0.9999999999999998
 40
0.4082480000000002
 41
0.0
 42
1.107148717794089
  0
ELLIPSE
  5
6E36
330
A
100
AcDbEntity
  8
0
  6
Continuous
 62
     7
100
AcDbEllipse
 10
139.2049
 20
-142.424651
 30
0.0
 11
0.4000000000000116
 21
0.0
 31
0.0
210
0.0
220
0.0
230
0.9999999999999998
 40
0.4082480000000002
 41
3.141592653589792
 42
4.248741371383943
  0
ELLIPSE
  5
6E37
330
A
100
AcDbEntity
  8
0
  6
Continuous
 62
     7
100
AcDbEllipse
 10
143.533928
 20
-72.10437699999983
 30
0.0
 11
0.42399999999998
 21
2.077167301880121
 31
0.0
210
0.0
220
0.0
230
1.0
 40
0.4082480000000002
 41
4.277897402746633
 42
5.146880558022652
  0
ELLIPSE
  5
6E38
330
A
100
AcDbEntity
  8
0
  6
Continuous
 62
     7
100
AcDbEllipse
 10
145.072342
 20
-72.41840500000002
 30
0.0
 11
0.42399999999998
 21
2.077167301880121
 31
0.0
210
0.0
220
0.0
230
1.0
 40
0.4082480000000002
 41
0.0000000000000256
 42
2.03444393579568
  0
ELLIPSE
  5
6E39
330
A
100
AcDbEntity
  8
0
  6
Continuous
 62
     7
100
AcDbEllipse
 10
145.072342
 20
-72.41840500000002
 30
0.0
 11
0.42399999999998
 21
2.077167301880121
 31
0.0
210
0.0
220
0.0
230
1.0
 40
0.4082480000000002
 41
3.141592653589746
 42
6.283185307179611
  0
LINE
  5
6E3A
330
A
100
AcDbEntity
  8
0
  6
Continuous
 62
     7
100
AcDbLine
 10
118.418412
 20
-72.27234599999997
 30
0.0
 11
138.8049
 21
-76.43372000000018
 31
0.0
  0
LINE
  5
6E3B
330
A
100
AcDbEntity
  8
0
  6
Continuous
 62
     9
100
AcDbLine
 10
118.418412
 20
-116.09015
 30
0.0
 11
118.418412
 21
-72.27234599999997
 31
0.0
  0
LINE
  5
6E3C
330
A
100
AcDbEntity
  8
0
  6
Continuous
 62
     7
100
AcDbLine
 10
118.418412
 20
-116.09015
 30
0.0
 11
138.8049
 21
-120.2515250000001
 31
0.0
  0
ELLIPSE
  5
6E3D
330
A
100
AcDbEntity
  8
0
  6
Continuous
 62
     7
100
AcDbEllipse
 10
152.22776
 20
-95.78790099999997
 30
0.0
 11
-2.479999999999977
 21
-12.14946912420456
 31
0.0
210
0.0
220
0.0
230
0.9999999999999998
 40
0.4082480000000002
 41
5.17603658938549
 42
5.819537698178772
  0
ELLIPSE
  5
6E3E
330
A
100
AcDbEntity
  8
0
  6
Continuous
 62
     7
100
AcDbEllipse
 10
152.22776
 20
-95.78790099999997
 30
0.0
 11
-2.479999999999977
 21
-12.14946912420456
 31
0.0000000000000009
210
0.0
220
0.0000000000000001
230
0.9999999999999998
 40
0.4082480000000002
 41
5.819537698178776
 42
9.888425569770179
  0
ELLIPSE
  5
6E3F
330
A
100
AcDbEntity
  8
0
  6
Continuous
 62
     7
100
AcDbEllipse
 10
151.8699889999999
 20
-95.71487100000013
 30
0.0
 11
2.400000000000009
 21
11.75755076535928
 31
0.0
210
0.0
220
0.0
230
1.0
 40
0.4082480000000001
 41
2.711011087301125
 42
3.141592653589773
  0
ELLIPSE
  5
6E40
330
A
100
AcDbEntity
  8
0
  6
Continuous
 62
     7
100
AcDbEllipse
 10
151.8699889999999
 20
-95.71487100000013
 30
0.0
 11
2.400000000000009
 21
11.75755076535928
 31
0.0
210
0.0
220
0.0
230
1.0
 40
0.4082480000000001
 41
0.0000000000000036
 42
0.4305815663357483
  0
ELLIPSE
  5
6E41
330
A
100
AcDbEntity
  8
0
  6
Continuous
 62
     7
100
AcDbEllipse
 10
123.60609
 20
-68.03662400000002
 30
0.0
 11
10.79999999999997
 21
0.0
 31
0.0
210
0.0
220
0.0
230
1.0
 40
0.4082480000000001
 41
4.126949988829957
 42
4.370532753945123
  0
ELLIPSE
  5
6E42
330
A
100
AcDbEntity
  8
0
  6
Continuous
 62
     7
100
AcDbEllipse
 10
123.60609
 20
-111.8544290000001
 30
0.0
 11
-11.6
 21
0.0
 31
0.0000000000000008
210
0.0000000000000001
220
0.0000000000000001
230
1.0
 40
0.4082480000000002
 41
0.0000000000000001
 42
1.107148717794085
  0
ELLIPSE
  5
6E43
330
A
100
AcDbEntity
  8
0
  6
Continuous
 62
     7
100
AcDbEllipse
 10
123.60609
 20
-68.03662400000002
 30
0.0
 11
-11.6
 21
0.0
 31
0.0
210
0.0
220
0.0
230
1.0
 40
0.4082480000000002
 41
0.7151254153616006
 42
1.107148717794089
  0
ELLIPSE
  5
6E44
330
A
100
AcDbEntity
  8
0
  6
Continuous
 62
     7
100
AcDbEllipse
 10
157.844763
 20
-60.41962900000015
 30
0.0
 11
0.42399999999998
 21
2.077167301880121
 31
0.0
210
0.0
220
0.0
230
1.0
 40
0.4082480000000002
 41
4.277897402746205
 42
5.146880558023199
  0
ELLIPSE
  5
6E45
330
A
100
AcDbEntity
  8
0
  6
Continuous
 62
     7
100
AcDbEllipse
 10
143.533928
 20
-130.5281169999999
 30
0.0
 11
0.42399999999998
 21
2.077167301880121
 31
0.0000000000000001
210
0.0
220
-0.0000000000000001
230
1.0
 40
0.4082480000000002
 41
4.277897402787211
 42
5.146880557984125
  0
ELLIPSE
  5
6E46
330
A
100
AcDbEntity
  8
0
  6
Continuous
 62
     7
100
AcDbEllipse
 10
145.072342
 20
-130.8421440000001
 30
0.0
 11
0.42399999999998
 21
2.077167301880121
 31
0.0
210
0.0
220
0.0
230
1.0
 40
0.4082480000000002
 41
6.28318530717954
 42
8.317629242975288
  0
ELLIPSE
  5
6E47
330
A
100
AcDbEntity
  8
0
  6
Continuous
 62
     7
100
AcDbEllipse
 10
145.072342
 20
-130.8421440000001
 30
0.0
 11
0.42399999999998
 21
2.077167301880121
 31
0.0
210
0.0
220
0.0
230
1.0
 40
0.4082480000000002
 41
3.141592653589818
 42
6.28318530717954
  0
ELLIPSE
  5
6E48
330
A
100
AcDbEntity
  8
0
  6
Continuous
 62
     7
100
AcDbEllipse
 10
159.383178
 20
-60.73365700000015
 30
0.0
 11
0.42399999999998
 21
2.077167301880121
 31
0.0
210
0.0
220
0.0
230
1.0
 40
0.4082480000000002
 41
6.283185307179556
 42
8.317629242975339
  0
ELLIPSE
  5
6E49
330
A
100
AcDbEntity
  8
0
  6
Continuous
 62
     7
100
AcDbEllipse
 10
159.383178
 20
-60.73365700000015
 30
0.0
 11
0.42399999999998
 21
2.077167301880121
 31
0.0
210
0.0
220
0.0
230
1.0
 40
0.4082480000000002
 41
3.141592653589843
 42
6.283185307179556
  0
ELLIPSE
  5
6E4A
330
A
100
AcDbEntity
  8
0
  6
Continuous
 62
     7
100
AcDbEllipse
 10
152.728639
 20
-109.035484
 30
0.0
 11
-0.240000000000018
 21
-1.175755076535944
 31
0.0
210
0.0
220
0.0
230
1.0
 40
0.4082480000000002
 41
0.4636476090008406
 42
2.034443935795715
  0
LINE
  5
6E4B
330
A
100
AcDbEntity
  8
0
  6
Continuous
 62
     7
100
AcDbLine
 10
152.728639
 20
-110.130929
 30
0.0
 11
151.297556
 21
-111.299404
 31
0.0
  0
ELLIPSE
  5
6E4C
330
A
100
AcDbEntity
  8
0
  6
Continuous
 62
     7
100
AcDbEllipse
 10
151.297556
 20
-110.203958
 30
0.0
 11
-0.240000000000018
 21
-1.175755076535889
 31
0.0
210
0.0
220
0.0
230
1.0
 40
0.4082480000000002
 41
0.225513405900965
 42
0.4636476090007723
  0
ELLIPSE
  5
6E4D
330
A
100
AcDbEntity
  8
0
  6
Continuous
 62
     7
100
AcDbEllipse
 10
151.5122179999999
 20
-110.247776
 30
0.0
 11
0.240000000000018
 21
1.175755076535944
 31
0.0
210
0.0
220
0.0
230
1.0
 40
0.4082480000000002
 41
3.141592653589746
 42
3.605240262590633
  0
LINE
  5
6E4E
330
A
100
AcDbEntity
  8
0
  6
Continuous
 62
     9
100
AcDbLine
 10
151.5122179999999
 20
-111.343221
 30
0.0
 11
151.297556
 21
-111.299404
 31
0.0
  0
LINE
  5
6E4F
330
A
100
AcDbEntity
  8
0
  6
Continuous
 62
     9
100
AcDbLine
 10
152.943302
 20
-110.1747469999999
 30
0.0
 11
152.728639
 21
-110.130929
 31
0.0
  0
ELLIPSE
  5
6E50
330
A
100
AcDbEntity
  8
0
  6
Continuous
 62
     7
100
AcDbEllipse
 10
152.728639
 20
-109.035484
 30
0.0
 11
-0.240000000000018
 21
-1.175755076535944
 31
0.0
210
0.0
220
0.0
230
1.0
 40
0.4082480000000002
 41
2.034443935795718
 42
2.916079245315095
  0
ELLIPSE
  5
6E51
330
A
100
AcDbEntity
  8
0
  6
Continuous
 62
     7
100
AcDbEllipse
 10
152.943302
 20
-109.079301
 30
0.0
 11
0.240000000000018
 21
1.175755076535944
 31
0.0
210
0.0
220
0.0
230
1.0
 40
0.4082480000000002
 41
6.28318530717954
 42
6.746832916180422
  0
LINE
  5
6E52
330
A
100
AcDbEntity
  8
0
  6
Continuous
 62
     9
100
AcDbLine
 10
153.4799579999999
 20
-108.6411230000001
 30
0.0
 11
153.265296
 21
-108.5973059999998
 31
0.0
  0
ELLIPSE
  5
6E53
330
A
100
AcDbEntity
  8
0
  6
Continuous
 62
     7
100
AcDbEllipse
 10
155.089927
 20
-107.3265889999999
 30
0.0
 11
0.2240000000000019
 21
1.0973714047669
 31
0.0
210
0.0
220
0.0
230
1.0
 40
0.4082480000000002
 41
0.0
 42
2.03444393579566
  0
ELLIPSE
  5
6E54
330
A
100
AcDbEntity
  8
0
  6
Continuous
 62
     7
100
AcDbEllipse
 10
155.089927
 20
-107.3265889999999
 30
0.0
 11
0.2240000000000019
 21
1.0973714047669
 31
-0.0000000000000001
210
0.0
220
0.0000000000000001
230
1.0
 40
0.4082480000000002
 41
3.141592653589781
 42
6.283185307179584
  0
ELLIPSE
  5
6E55
330
A
100
AcDbEntity
  8
0
  6
Continuous
 62
     7
100
AcDbEllipse
 10
157.844763
 20
-118.8433690000001
 30
0.0
 11
0.4239999999999799
 21
2.077167301880176
 31
0.0
210
0.0
220
0.0
230
1.0
 40
0.4082480000000002
 41
4.277897402733541
 42
5.146880558035006
  0
ELLIPSE
  5
6E56
330
A
100
AcDbEntity
  8
0
  6
Continuous
 62
     7
100
AcDbEllipse
 10
159.383178
 20
-119.1573969999999
 30
0.0
 11
0.42399999999998
 21
2.077167301880121
 31
0.0
210
0.0
220
0.0
230
1.0
 40
0.4082480000000002
 41
6.283185307179556
 42
8.317629242975312
  0
ELLIPSE
  5
6E57
330
A
100
AcDbEntity
  8
0
  6
Continuous
 62
     7
100
AcDbEllipse
 10
159.383178
 20
-119.1573969999999
 30
0.0
 11
0.42399999999998
 21
2.077167301880121
 31
0.0
210
0.0
220
0.0
230
1.0
 40
0.4082480000000002
 41
3.141592653589843
 42
6.283185307179556
  0
LINE
  5
6E58
330
A
100
AcDbEntity
  8
0
  6
Continuous
 62
     7
100
AcDbLine
 10
107.1864
 20
-110.53743
 30
0.0
 11
107.746366
 21
-110.6517330000001
 31
0.0
  0
LINE
  5
6E59
330
A
100
AcDbEntity
  8
0
  6
Continuous
 62
     7
100
AcDbLine
 10
108.386366
 20
-107.5163860000001
 30
0.0
 11
107.8264
 21
-107.4020840000001
 31
0.0
  0
LINE
  5
6E5A
330
A
100
AcDbEntity
  8
0
  6
Continuous
 62
     7
100
AcDbLine
 10
107.1864
 20
-74.67985999999995
 30
0.0
 11
107.746366
 21
-74.79416299999996
 31
0.0
  0
LINE
  5
6E5B
330
A
100
AcDbEntity
  8
0
  6
Continuous
 62
     7
100
AcDbLine
 10
108.386366
 20
-71.658816
 30
0.0
 11
107.8264
 21
-71.54451300000015
 31
0.0
  0
LINE
  5
6E5C
330
A
100
AcDbEntity
  8
0
  6
Continuous
 62
     7
100
AcDbLine
 10
100.25146
 20
-45.27553499999998
 30
0.0
 11
99.714804
 21
-45.71371299999998
 31
0.0
  0
LINE
  5
6E5D
330
A
100
AcDbEntity
  8
0
  6
Continuous
 62
     7
100
AcDbLine
 10
100.25146
 20
-45.27553499999998
 30
0.0
 11
99.714804
 21
-45.71371299999998
 31
0.0
  0
LINE
  5
6E5E
330
A
100
AcDbEntity
  8
0
  6
Continuous
 62
     7
100
AcDbLine
 10
99.714804
 20
-45.71371299999998
 30
0.0
 11
99.357033
 21
-46.00583200000015
 31
0.0
  0
ARC
  5
6E5F
330
A
100
AcDbEntity
  8
0
  6
Continuous
 62
     7
100
AcDbCircle
 10
154.008449
 20
-107.1302610000001
 30
0.0
 40
1.27
100
AcDbArc
 50
301.1735039999986
 51
36.92738900000286
  0
LINE
  5
6E60
330
A
100
AcDbEntity
  8
0
  6
Continuous
 62
     7
100
AcDbLine
 10
151.030113
 20
-54.52881700000012
 30
0.0
 11
151.030113
 21
-52.04312600000003
 31
0.0
  0
LINE
  5
6E61
330
A
100
AcDbEntity
  8
0
  6
Continuous
 62
     7
100
AcDbLine
 10
91.812389
 20
-47.83913499999993
 30
0.0
 11
91.812389
 21
-126.7111830000003
 31
0.0
  0
LINE
  5
6E62
330
A
100
AcDbEntity
  8
0
  6
Continuous
 62
     7
100
AcDbLine
 10
152.013097
 20
-106.698534
 30
0.0
 11
152.22776
 21
-106.523263
 31
0.0
  0
LINE
  5
6E63
330
A
100
AcDbEntity
  8
0
  6
Continuous
 62
     7
100
AcDbLine
 10
156.435145
 20
-85.91136799999999
 30
0.0
 11
156.306348
 21
-85.66598799999997
 31
0.0
  0
LINE
  5
6E64
330
A
100
AcDbEntity
  8
0
  6
Continuous
 62
     7
100
AcDbLine
 10
154.413097
 20
-83.98653200000003
 30
0.0
 11
154.2699889999999
 21
-83.95732000000014
 31
0.0
  0
LINE
  5
6E65
330
A
100
AcDbEntity
  8
0
  6
Continuous
 62
     7
100
AcDbLine
 10
149.469989
 20
-107.472422
 30
0.0
 11
149.613097
 21
-107.5016339999999
 31
0.0
  0
LINE
  5
6E66
330
A
100
AcDbEntity
  8
0
  6
Continuous
 62
     7
100
AcDbLine
 10
138.8049
 20
-63.55260199999998
 30
0.0
 11
138.8049
 21
-142.424651
 31
0.0
  0
LINE
  5
6E67
330
A
100
AcDbEntity
  8
0
  6
Continuous
 62
     7
100
AcDbLine
 10
112.00609
 20
-70.56177300000013
 30
0.0
 11
112.00609
 21
-111.8544290000001
 31
0.0
  0
LINE
  5
6E68
330
A
100
AcDbEntity
  8
0
  6
Continuous
 62
     9
100
AcDbLine
 10
-16.00000000000001
 20
-67.00000000000017
 30
0.0
 11
-16.00000000000001
 21
-68.0
 31
0.0
  0
LINE
  5
6E69
330
A
100
AcDbEntity
  8
0
  6
Continuous
 62
     9
100
AcDbLine
 10
43.0
 20
-67.00000000000017
 30
0.0
 11
43.0
 21
-68.0
 31
0.0
  0
LINE
  5
6E6A
330
A
100
AcDbEntity
  8
0
  6
Continuous
 62
     7
100
AcDbLine
 10
-16.00000000000001
 20
-68.0
 30
0.0
 11
43.0
 21
-68.0
 31
0.0
  0
LINE
  5
6E6B
330
A
100
AcDbEntity
  8
0
  6
Continuous
 62
     7
100
AcDbLine
 10
48.5
 20
-67.00000000000017
 30
0.0
 11
48.5
 21
-68.0
 31
0.0
  0
LINE
  5
6E6C
330
A
100
AcDbEntity
  8
0
  6
Continuous
 62
     7
100
AcDbLine
 10
43.0
 20
-68.0
 30
0.0
 11
48.5
 21
-68.0
 31
0.0
  0
LINE
  5
6E6D
330
A
100
AcDbEntity
  8
0
  6
Continuous
 62
     7
100
AcDbLine
 10
-21.50000000000002
 20
-67.00000000000017
 30
0.0
 11
-21.50000000000002
 21
-68.0
 31
0.0
  0
LINE
  5
6E6E
330
A
100
AcDbEntity
  8
0
  6
Continuous
 62
     7
100
AcDbLine
 10
-21.50000000000002
 20
-68.0
 30
0.0
 11
-16.00000000000001
 21
-68.0
 31
0.0
  0
LINE
  5
6E6F
330
A
100
AcDbEntity
  8
0
  6
Continuous
 62
     9
100
AcDbLine
 10
43.0
 20
-80.5
 30
0.0
 11
43.0
 21
-80.0
 31
0.0
  0
LINE
  5
6E70
330
A
100
AcDbEntity
  8
0
  6
Continuous
 62
     9
100
AcDbLine
 10
-16.00000000000001
 20
-80.5
 30
0.0
 11
-16.00000000000001
 21
-80.0
 31
0.0
  0
LINE
  5
6E71
330
A
100
AcDbEntity
  8
0
  6
Continuous
 62
     7
100
AcDbLine
 10
43.0
 20
-80.0
 30
0.0
 11
-16.00000000000001
 21
-80.0
 31
0.0
  0
LINE
  5
6E72
330
A
100
AcDbEntity
  8
0
  6
Continuous
 62
     7
100
AcDbLine
 10
48.5
 20
-80.5
 30
0.0
 11
48.5
 21
-80.0
 31
0.0
  0
LINE
  5
6E73
330
A
100
AcDbEntity
  8
0
  6
Continuous
 62
     7
100
AcDbLine
 10
48.5
 20
-80.0
 30
0.0
 11
43.0
 21
-80.0
 31
0.0
  0
LINE
  5
6E74
330
A
100
AcDbEntity
  8
0
  6
Continuous
 62
     7
100
AcDbLine
 10
-21.50000000000002
 20
-80.5
 30
0.0
 11
-21.50000000000002
 21
-80.0
 31
0.0
  0
LINE
  5
6E75
330
A
100
AcDbEntity
  8
0
  6
Continuous
 62
     7
100
AcDbLine
 10
-16.00000000000001
 20
-80.0
 30
0.0
 11
-21.50000000000002
 21
-80.0
 31
0.0
  0
LINE
  5
6E76
330
A
100
AcDbEntity
  8
0
  6
Continuous
 62
     9
100
AcDbLine
 10
9.083325999999999
 20
-79.00000000000017
 30
0.0
 11
9.083325999999999
 21
-69.5
 31
0.0
  0
LINE
  5
6E77
330
A
100
AcDbEntity
  8
0
  6
Continuous
 62
     7
100
AcDbLine
 10
-9.000000000000012
 20
-79.00000000000017
 30
0.0
 11
-9.000000000000012
 21
-69.5
 31
0.0
  0
LINE
  5
6E78
330
A
100
AcDbEntity
  8
0
  6
Continuous
 62
     7
100
AcDbLine
 10
9.083325999999999
 20
-69.5
 30
0.0
 11
-9.000000000000012
 21
-69.5
 31
0.0
  0
LINE
  5
6E79
330
A
100
AcDbEntity
  8
0
  6
Continuous
 62
     9
100
AcDbLine
 10
13.14911099999999
 20
-79.00000000000017
 30
0.0
 11
13.14911099999999
 21
-69.5
 31
0.0
  0
LINE
  5
6E7A
330
A
100
AcDbEntity
  8
0
  6
Continuous
 62
     7
100
AcDbLine
 10
9.083325999999999
 20
-69.5
 30
0.0
 11
13.14911099999999
 21
-69.5
 31
0.0
  0
LINE
  5
6E7B
330
A
100
AcDbEntity
  8
0
  6
Continuous
 62
     7
100
AcDbLine
 10
43.0
 20
-79.00000000000017
 30
0.0
 11
43.0
 21
-69.5
 31
0.0
  0
LINE
  5
6E7C
330
A
100
AcDbEntity
  8
0
  6
Continuous
 62
     7
100
AcDbLine
 10
43.0
 20
-69.5
 30
0.0
 11
13.14911099999999
 21
-69.5
 31
0.0
  0
LINE
  5
6E7D
330
A
100
AcDbEntity
  8
0
  6
Continuous
 62
     9
100
AcDbLine
 10
-16.00000000000001
 20
-67.00000000000017
 30
0.0
 11
-16.00000000000001
 21
-68.0
 31
0.0
  0
LINE
  5
6E7E
330
A
100
AcDbEntity
  8
0
  6
Continuous
 62
     9
100
AcDbLine
 10
-16.00000000000001
 20
-68.0
 30
0.0
 11
-16.00000000000001
 21
-69.0
 31
0.0
  0
LINE
  5
6E7F
330
A
100
AcDbEntity
  8
0
  6
Continuous
 62
     9
100
AcDbLine
 10
43.0
 20
-67.00000000000017
 30
0.0
 11
43.0
 21
-68.0
 31
0.0
  0
LINE
  5
6E80
330
A
100
AcDbEntity
  8
0
  6
Continuous
 62
     9
100
AcDbLine
 10
43.0
 20
-68.0
 30
0.0
 11
43.0
 21
-69.0
 31
0.0
  0
LINE
  5
6E81
330
A
100
AcDbEntity
  8
0
  6
Continuous
 62
     7
100
AcDbLine
 10
-16.00000000000001
 20
-69.0
 30
0.0
 11
43.0
 21
-69.0
 31
0.0
  0
LINE
  5
6E82
330
A
100
AcDbEntity
  8
0
  6
Continuous
 62
     7
100
AcDbLine
 10
48.5
 20
-67.00000000000017
 30
0.0
 11
48.5
 21
-68.0
 31
0.0
  0
LINE
  5
6E83
330
A
100
AcDbEntity
  8
0
  6
Continuous
 62
     7
100
AcDbLine
 10
48.5
 20
-68.0
 30
0.0
 11
48.5
 21
-69.0
 31
0.0
  0
LINE
  5
6E84
330
A
100
AcDbEntity
  8
0
  6
Continuous
 62
     7
100
AcDbLine
 10
43.0
 20
-69.0
 30
0.0
 11
48.5
 21
-69.0
 31
0.0
  0
LINE
  5
6E85
330
A
100
AcDbEntity
  8
0
  6
Continuous
 62
     7
100
AcDbLine
 10
-21.50000000000002
 20
-67.00000000000017
 30
0.0
 11
-21.50000000000002
 21
-68.0
 31
0.0
  0
LINE
  5
6E86
330
A
100
AcDbEntity
  8
0
  6
Continuous
 62
     7
100
AcDbLine
 10
-21.50000000000002
 20
-68.0
 30
0.0
 11
-21.50000000000002
 21
-69.0
 31
0.0
  0
LINE
  5
6E87
330
A
100
AcDbEntity
  8
0
  6
Continuous
 62
     7
100
AcDbLine
 10
-21.50000000000002
 20
-69.0
 30
0.0
 11
-16.00000000000001
 21
-69.0
 31
0.0
  0
LINE
  5
6E88
330
A
100
AcDbEntity
  8
0
  6
Continuous
 62
     7
100
AcDbLine
 10
48.5
 20
-80.5
 30
0.0
 11
48.5
 21
-80.0
 31
0.0
  0
LINE
  5
6E89
330
A
100
AcDbEntity
  8
0
  6
Continuous
 62
     7
100
AcDbLine
 10
48.5
 20
-80.0
 30
0.0
 11
48.5
 21
-79.00000000000017
 31
0.0
  0
LINE
  5
6E8A
330
A
100
AcDbEntity
  8
0
  6
Continuous
 62
     9
100
AcDbLine
 10
43.0
 20
-80.5
 30
0.0
 11
43.0
 21
-80.0
 31
0.0
  0
LINE
  5
6E8B
330
A
100
AcDbEntity
  8
0
  6
Continuous
 62
     9
100
AcDbLine
 10
43.0
 20
-80.0
 30
0.0
 11
43.0
 21
-79.00000000000017
 31
0.0
  0
LINE
  5
6E8C
330
A
100
AcDbEntity
  8
0
  6
Continuous
 62
     7
100
AcDbLine
 10
48.5
 20
-79.00000000000017
 30
0.0
 11
43.0
 21
-79.00000000000017
 31
0.0
  0
LINE
  5
6E8D
330
A
100
AcDbEntity
  8
0
  6
Continuous
 62
     9
100
AcDbLine
 10
-16.00000000000001
 20
-80.5
 30
0.0
 11
-16.00000000000001
 21
-80.0
 31
0.0
  0
LINE
  5
6E8E
330
A
100
AcDbEntity
  8
0
  6
Continuous
 62
     9
100
AcDbLine
 10
-16.00000000000001
 20
-80.0
 30
0.0
 11
-16.00000000000001
 21
-79.00000000000017
 31
0.0
  0
LINE
  5
6E8F
330
A
100
AcDbEntity
  8
0
  6
Continuous
 62
     7
100
AcDbLine
 10
43.0
 20
-79.00000000000017
 30
0.0
 11
-16.00000000000001
 21
-79.00000000000017
 31
0.0
  0
LINE
  5
6E90
330
A
100
AcDbEntity
  8
0
  6
Continuous
 62
     7
100
AcDbLine
 10
-21.50000000000002
 20
-80.5
 30
0.0
 11
-21.50000000000002
 21
-80.0
 31
0.0
  0
LINE
  5
6E91
330
A
100
AcDbEntity
  8
0
  6
Continuous
 62
     7
100
AcDbLine
 10
-21.50000000000002
 20
-80.0
 30
0.0
 11
-21.50000000000002
 21
-79.00000000000017
 31
0.0
  0
LINE
  5
6E92
330
A
100
AcDbEntity
  8
0
  6
Continuous
 62
     7
100
AcDbLine
 10
-16.00000000000001
 20
-79.00000000000017
 30
0.0
 11
-21.50000000000002
 21
-79.00000000000017
 31
0.0
  0
LINE
  5
6E93
330
A
100
AcDbEntity
  8
0
  6
Continuous
 62
     9
100
AcDbLine
 10
9.083325999999999
 20
-79.00000000000017
 30
0.0
 11
9.083325999999999
 21
-69.5
 31
0.0
  0
LINE
  5
6E94
330
A
100
AcDbEntity
  8
0
  6
Continuous
 62
     7
100
AcDbLine
 10
-9.000000000000012
 20
-79.00000000000017
 30
0.0
 11
-9.000000000000012
 21
-69.5
 31
0.0
  0
LINE
  5
6E95
330
A
100
AcDbEntity
  8
0
  6
Continuous
 62
     7
100
AcDbLine
 10
9.083325999999999
 20
-69.5
 30
0.0
 11
-9.000000000000012
 21
-69.5
 31
0.0
  0
LINE
  5
6E96
330
A
100
AcDbEntity
  8
0
  6
Continuous
 62
     9
100
AcDbLine
 10
13.14911099999999
 20
-79.00000000000017
 30
0.0
 11
13.14911099999999
 21
-69.5
 31
0.0
  0
LINE
  5
6E97
330
A
100
AcDbEntity
  8
0
  6
Continuous
 62
     7
100
AcDbLine
 10
9.083325999999999
 20
-69.5
 30
0.0
 11
13.14911099999999
 21
-69.5
 31
0.0
  0
LINE
  5
6E98
330
A
100
AcDbEntity
  8
0
  6
Continuous
 62
     7
100
AcDbLine
 10
43.0
 20
-79.00000000000017
 30
0.0
 11
43.0
 21
-69.5
 31
0.0
  0
LINE
  5
6E99
330
A
100
AcDbEntity
  8
0
  6
Continuous
 62
     7
100
AcDbLine
 10
43.0
 20
-69.5
 30
0.0
 11
13.14911099999999
 21
-69.5
 31
0.0
  0
ARC
  5
6E9A
330
A
100
AcDbEntity
  8
0
  6
Continuous
 62
     7
100
AcDbCircle
 10
16.5
 20
-74.0
 30
0.0
 40
6.025
100
AcDbArc
 50
123.9140469999982
 51
131.598023
  0
ARC
  5
6E9B
330
A
100
AcDbEntity
  8
0
  6
Continuous
 62
     7
100
AcDbCircle
 10
16.5
 20
-74.0
 30
0.0
 40
6.025
100
AcDbArc
 50
48.401977
 51
55.64523799999847
  0
ARC
  5
6E9C
330
A
100
AcDbEntity
  8
0
  6
Continuous
 62
     7
100
AcDbCircle
 10
43.0
 20
-66.00000000000017
 30
0.0
 40
7.0
100
AcDbArc
 50
0.0
 51
90.0
  0
LINE
  5
6E9D
330
A
100
AcDbEntity
  8
0
  6
Continuous
 62
     7
100
AcDbLine
 10
-23.00000000000002
 20
-67.00000000000017
 30
0.0
 11
-23.00000000000002
 21
-65.23000000000013
 31
0.0
  0
LINE
  5
6E9E
330
A
100
AcDbEntity
  8
0
  6
Continuous
 62
     7
100
AcDbLine
 10
-23.00000000000002
 20
-67.00000000000017
 30
0.0
 11
50.0
 21
-67.00000000000017
 31
0.0
  0
LINE
  5
6E9F
330
A
100
AcDbEntity
  8
0
  6
Continuous
 62
     7
100
AcDbLine
 10
50.0
 20
-67.00000000000017
 30
0.0
 11
50.0
 21
-66.00000000000017
 31
0.0
  0
LINE
  5
6EA0
330
A
100
AcDbEntity
  8
0
  6
Continuous
 62
     7
100
AcDbLine
 10
-12.9
 20
-59.0
 30
0.0
 11
43.0
 21
-59.0
 31
0.0
  0
LINE
  5
6EA1
330
A
100
AcDbEntity
  8
0
  6
Continuous
 62
     7
100
AcDbLine
 10
-22.85564100000001
 20
-63.57997099999999
 30
0.0
 11
-23.00000000000002
 21
-65.23000000000013
 31
0.0
  0
ARC
  5
6EA2
330
A
100
AcDbEntity
  8
0
  6
Continuous
 62
     7
100
AcDbCircle
 10
-21.361349
 20
-63.71070499999996
 30
0.0
 40
1.5
100
AcDbArc
 50
128.8119690000005
 51
175.0000000000002
  0
ARC
  5
6EA3
330
A
100
AcDbEntity
  8
0
  6
Continuous
 62
     7
100
AcDbCircle
 10
-12.9
 20
-74.23000000000012
 30
0.0
 40
15.0
100
AcDbArc
 50
99.97010400000064
 51
128.8119690000005
  0
LINE
  5
6EA4
330
A
100
AcDbEntity
  8
0
  6
Continuous
 62
     7
100
AcDbLine
 10
-12.9
 20
-59.0
 30
0.0
 11
-15.49701399999999
 21
-59.45652699999993
 31
0.0
  0
ARC
  5
6EA5
330
A
100
AcDbEntity
  8
0
  6
Continuous
 62
     7
100
AcDbCircle
 10
-21.361349
 20
-83.78929500000015
 30
0.0
 40
1.5
100
AcDbArc
 50
184.9999999999998
 51
231.1880309999994
  0
LINE
  5
6EA6
330
A
100
AcDbEntity
  8
0
  6
Continuous
 62
     7
100
AcDbLine
 10
-23.00000000000002
 20
-82.26999999999998
 30
0.0
 11
-22.85564100000001
 21
-83.92002900000017
 31
0.0
  0
LINE
  5
6EA7
330
A
100
AcDbEntity
  8
0
  6
Continuous
 62
     7
100
AcDbLine
 10
-23.00000000000002
 20
-82.26999999999998
 30
0.0
 11
-23.00000000000002
 21
-80.5
 31
0.0
  0
LINE
  5
6EA8
330
A
100
AcDbEntity
  8
0
  6
Continuous
 62
     7
100
AcDbLine
 10
50.0
 20
-81.5
 30
0.0
 11
50.0
 21
-80.5
 31
0.0
  0
ARC
  5
6EA9
330
A
100
AcDbEntity
  8
0
  6
Continuous
 62
     7
100
AcDbCircle
 10
43.0
 20
-81.5
 30
0.0
 40
7.0
100
AcDbArc
 50
270.0
 51
0.0
  0
LINE
  5
6EAA
330
A
100
AcDbEntity
  8
0
  6
Continuous
 62
     7
100
AcDbLine
 10
-12.9
 20
-88.49999999999999
 30
0.0
 11
43.0
 21
-88.49999999999999
 31
0.0
  0
LINE
  5
6EAB
330
A
100
AcDbEntity
  8
0
  6
Continuous
 62
     7
100
AcDbLine
 10
-15.49701399999999
 20
-88.0434730000003
 30
0.0
 11
-12.9
 21
-88.49999999999999
 31
0.0
  0
ARC
  5
6EAC
330
A
100
AcDbEntity
  8
0
  6
Continuous
 62
     7
100
AcDbCircle
 10
-12.9
 20
-73.26999999999998
 30
0.0
 40
15.0
100
AcDbArc
 50
231.1880309999994
 51
260.0298959999993
  0
LINE
  5
6EAD
330
A
100
AcDbEntity
  8
0
  6
Continuous
 62
     7
100
AcDbLine
 10
-23.00000000000002
 20
-80.5
 30
0.0
 11
50.0
 21
-80.5
 31
0.0
  0
LINE
  5
6EAE
330
A
100
AcDbEntity
  8
0
  6
Continuous
 62
     9
100
AcDbLine
 10
7.728064000000017
 20
-69.5
 30
0.0
 11
7.728064000000017
 21
-69.0
 31
0.0
  0
LINE
  5
6EAF
330
A
100
AcDbEntity
  8
0
  6
Continuous
 62
     7
100
AcDbLine
 10
3.283883000000001
 20
-69.5
 30
0.0
 11
3.283883000000001
 21
-69.0
 31
0.0
  0
LINE
  5
6EB0
330
A
100
AcDbEntity
  8
0
  6
Continuous
 62
     7
100
AcDbLine
 10
-2.283882000000004
 20
-69.0
 30
0.0
 11
-2.283882000000004
 21
-69.5
 31
0.0
  0
LINE
  5
6EB1
330
A
100
AcDbEntity
  8
0
  6
Continuous
 62
     7
100
AcDbLine
 10
-7.500000000000013
 20
-69.5
 30
0.0
 11
-7.500000000000013
 21
-69.0
 31
0.0
  0
LINE
  5
6EB2
330
A
100
AcDbEntity
  8
0
  6
Continuous
 62
     7
100
AcDbLine
 10
12.5
 20
-69.0
 30
0.0
 11
12.5
 21
-69.5
 31
0.0
  0
LINE
  5
6EB3
330
A
100
AcDbEntity
  8
0
  6
Continuous
 62
     7
100
AcDbLine
 10
48.5
 20
-68.0
 30
0.0
 11
50.0
 21
-68.0
 31
0.0
  0
LINE
  5
6EB4
330
A
100
AcDbEntity
  8
0
  6
Continuous
 62
     7
100
AcDbLine
 10
20.5
 20
-69.5
 30
0.0
 11
20.5
 21
-69.0
 31
0.0
  0
LINE
  5
6EB5
330
A
100
AcDbEntity
  8
0
  6
Continuous
 62
     7
100
AcDbLine
 10
50.0
 20
-80.5
 30
0.0
 11
50.0
 21
-68.0
 31
0.0
  0
ARC
  5
6EB6
330
A
100
AcDbEntity
  8
0
  6
Continuous
 62
     7
100
AcDbCircle
 10
16.5
 20
-74.0
 30
0.0
 40
5.75
100
AcDbArc
 50
119.5918459999988
 51
128.4999499999988
  0
ARC
  5
6EB7
330
A
100
AcDbEntity
  8
0
  6
Continuous
 62
     7
100
AcDbCircle
 10
16.5
 20
-74.0
 30
0.0
 40
5.75
100
AcDbArc
 50
51.50005000000117
 51
60.40815400000115
  0
ARC
  5
6EB8
330
A
100
AcDbEntity
  8
0
  6
Continuous
 62
     7
100
AcDbCircle
 10
16.5
 20
-74.0
 30
0.0
 40
5.25
100
AcDbArc
 50
58.99728100000067
 51
72.24721000000105
  0
ARC
  5
6EB9
330
A
100
AcDbEntity
  8
0
  6
Continuous
 62
     7
100
AcDbCircle
 10
16.5
 20
-74.0
 30
0.0
 40
5.25
100
AcDbArc
 50
107.7527899999989
 51
121.0027189999993
  0
ARC
  5
6EBA
330
A
100
AcDbEntity
  8
0
  6
Continuous
 62
     9
100
AcDbCircle
 10
16.5
 20
-74.0
 30
0.0
 40
5.799999999999998
100
AcDbArc
 50
50.88325599999958
 51
59.54968600000039
  0
ARC
  5
6EBB
330
A
100
AcDbEntity
  8
0
  6
Continuous
 62
     9
100
AcDbCircle
 10
16.5
 20
-74.0
 30
0.0
 40
5.799999999999998
100
AcDbArc
 50
120.4503139999996
 51
129.1167440000004
  0
ARC
  5
6EBC
330
A
100
AcDbEntity
  8
0
  6
Continuous
 62
     7
100
AcDbCircle
 10
16.5
 20
-74.0
 30
0.0
 40
6.0
100
AcDbArc
 50
123.5573099999994
 51
131.4096219999995
  0
ARC
  5
6EBD
330
A
100
AcDbEntity
  8
0
  6
Continuous
 62
     7
100
AcDbCircle
 10
16.5
 20
-74.0
 30
0.0
 40
6.0
100
AcDbArc
 50
48.18968500000099
 51
56.4426900000006
  0
ARC
  5
6EBE
330
A
100
AcDbEntity
  8
0
  6
Continuous
 62
     7
100
AcDbCircle
 10
51.79999999999998
 20
-101.0
 30
0.0
 40
0.5
100
AcDbArc
 50
180.0
 51
270.0
  0
ARC
  5
6EBF
330
A
100
AcDbEntity
  8
0
  6
Continuous
 62
     7
100
AcDbCircle
 10
51.79999999999998
 20
-47.0
 30
0.0
 40
0.5
100
AcDbArc
 50
90.0
 51
180.0
  0
ARC
  5
6EC0
330
A
100
AcDbEntity
  8
0
  6
Continuous
 62
     7
100
AcDbCircle
 10
-18.203597
 20
-74.0
 30
0.0
 40
71.0
100
AcDbArc
 50
348.2158439999982
 51
11.78415600000176
  0
LINE
  5
6EC1
330
A
100
AcDbEntity
  8
0
  6
Continuous
 62
     7
100
AcDbLine
 10
56.5
 20
-46.5
 30
0.0
 11
51.79999999999998
 21
-46.5
 31
0.0
  0
LINE
  5
6EC2
330
A
100
AcDbEntity
  8
0
  6
Continuous
 62
     7
100
AcDbLine
 10
51.79999999999998
 20
-101.5
 30
0.0
 11
56.5
 21
-101.5
 31
0.0
  0
LINE
  5
6EC3
330
A
100
AcDbEntity
  8
0
  6
Continuous
 62
     7
100
AcDbLine
 10
51.29999999999999
 20
-88.49999999999999
 30
0.0
 11
51.29999999999999
 21
-101.0
 31
0.0
  0
LINE
  5
6EC4
330
A
100
AcDbEntity
  8
0
  6
Continuous
 62
     7
100
AcDbLine
 10
51.29999999999999
 20
-47.0
 30
0.0
 11
51.29999999999999
 21
-59.5
 31
0.0
  0
LINE
  5
6EC5
330
A
100
AcDbEntity
  8
0
  6
Continuous
 62
     7
100
AcDbLine
 10
56.5
 20
-101.5
 30
0.0
 11
56.5
 21
-46.5
 31
0.0
  0
LINE
  5
6EC6
330
A
100
AcDbEntity
  8
0
  6
Continuous
 62
     7
100
AcDbLine
 10
43.0
 20
-88.49999999999999
 30
0.0
 11
49.79999999999998
 21
-88.49999999999999
 31
0.0
  0
LINE
  5
6EC7
330
A
100
AcDbEntity
  8
0
  6
Continuous
 62
     7
100
AcDbLine
 10
49.79999999999998
 20
-59.5
 30
0.0
 11
45.59807699999999
 21
-59.5
 31
0.0
  0
ARC
  5
6EC8
330
A
100
AcDbEntity
  8
0
  6
Continuous
 62
     7
100
AcDbCircle
 10
49.79999999999998
 20
-90.0
 30
0.0
 40
1.5
100
AcDbArc
 50
0.0
 51
90.0
  0
ARC
  5
6EC9
330
A
100
AcDbEntity
  8
0
  6
Continuous
 62
     7
100
AcDbCircle
 10
49.79999999999998
 20
-58.00000000000011
 30
0.0
 40
1.5
100
AcDbArc
 50
270.0
 51
0.0
  0
CIRCLE
  5
6ECA
330
A
100
AcDbEntity
  8
0
  6
Continuous
 62
     7
100
AcDbCircle
 10
-86.62704699999999
 20
39.0
 30
0.0
 40
14.7
  0
CIRCLE
  5
6ECB
330
A
100
AcDbEntity
  8
0
  6
Continuous
 62
     7
100
AcDbCircle
 10
-86.62704699999999
 20
39.0
 30
0.0
 40
15.0
  0
CIRCLE
  5
6ECC
330
A
100
AcDbEntity
  8
0
  6
Continuous
 62
     7
100
AcDbCircle
 10
-86.62704699999999
 20
52.0
 30
0.0
 40
1.55
  0
CIRCLE
  5
6ECD
330
A
100
AcDbEntity
  8
0
  6
Continuous
 62
     7
100
AcDbCircle
 10
-86.62704699999999
 20
26.0
 30
0.0
 40
1.55
  0
CIRCLE
  5
6ECE
330
A
100
AcDbEntity
  8
0
  6
Continuous
 62
     7
100
AcDbCircle
 10
-73.62704699999999
 20
39.0
 30
0.0
 40
1.55
  0
CIRCLE
  5
6ECF
330
A
100
AcDbEntity
  8
0
  6
Continuous
 62
     7
100
AcDbCircle
 10
-99.62704700000001
 20
39.0
 30
0.0
 40
1.55
  0
CIRCLE
  5
6ED0
330
A
100
AcDbEntity
  8
0
  6
Continuous
 62
     7
100
AcDbCircle
 10
-86.62704699999999
 20
39.0
 30
0.0
 40
15.5
  0
CIRCLE
  5
6ED1
330
A
100
AcDbEntity
  8
0
  6
Continuous
 62
     7
100
AcDbCircle
 10
-106.627047
 20
78.99999999999987
 30
0.0
 40
2.649999999999999
  0
LINE
  5
6ED2
330
A
100
AcDbEntity
  8
0
  6
Continuous
 62
     7
100
AcDbLine
 10
-59.12704699999999
 20
-15.0
 30
0.0
 11
-59.12704699999999
 21
93.0
 31
0.0
  0
LINE
  5
6ED3
330
A
100
AcDbEntity
  8
0
  6
Continuous
 62
     7
100
AcDbLine
 10
-114.127047
 20
-15.0
 30
0.0
 11
-59.12704699999999
 21
-15.0
 31
0.0
  0
LINE
  5
6ED4
330
A
100
AcDbEntity
  8
0
  6
Continuous
 62
     7
100
AcDbLine
 10
-114.127047
 20
93.0
 30
0.0
 11
-59.12704699999999
 21
93.0
 31
0.0
  0
CIRCLE
  5
6ED5
330
A
100
AcDbEntity
  8
0
  6
Continuous
 62
     7
100
AcDbCircle
 10
-66.62704699999999
 20
78.99999999999987
 30
0.0
 40
2.649999999999999
  0
CIRCLE
  5
6ED6
330
A
100
AcDbEntity
  8
0
  6
Continuous
 62
     7
100
AcDbCircle
 10
-66.62704699999999
 20
-1.0
 30
0.0
 40
2.649999999999999
  0
LINE
  5
6ED7
330
A
100
AcDbEntity
  8
0
  6
Continuous
 62
     7
100
AcDbLine
 10
-88.627047
 20
18.5
 30
0.0
 11
-84.62704700000001
 21
18.5
 31
0.0
  0
ARC
  5
6ED8
330
A
100
AcDbEntity
  8
0
  6
Continuous
 62
     7
100
AcDbCircle
 10
-84.62704700000001
 20
20.0
 30
0.0
 40
1.5
100
AcDbArc
 50
270.0
 51
0.0
  0
ARC
  5
6ED9
330
A
100
AcDbEntity
  8
0
  6
Continuous
 62
     7
100
AcDbCircle
 10
-84.62704700000001
 20
20.0
 30
0.0
 40
1.5
100
AcDbArc
 50
0.0
 51
90.0
  0
LINE
  5
6EDA
330
A
100
AcDbEntity
  8
0
  6
Continuous
 62
     7
100
AcDbLine
 10
-84.62704700000001
 20
21.5
 30
0.0
 11
-88.627047
 21
21.5
 31
0.0
  0
ARC
  5
6EDB
330
A
100
AcDbEntity
  8
0
  6
Continuous
 62
     7
100
AcDbCircle
 10
-88.627047
 20
20.0
 30
0.0
 40
1.5
100
AcDbArc
 50
90.0
 51
180.0
  0
CIRCLE
  5
6EDC
330
A
100
AcDbEntity
  8
0
  6
Continuous
 62
     7
100
AcDbCircle
 10
-78.62704699999999
 20
20.0
 30
0.0
 40
1.399999999999999
  0
LINE
  5
6EDD
330
A
100
AcDbEntity
  8
0
  6
Continuous
 62
     7
100
AcDbLine
 10
-114.127047
 20
-15.0
 30
0.0
 11
-114.127047
 21
93.0
 31
0.0
  0
ARC
  5
6EDE
330
A
100
AcDbEntity
  8
0
  6
Continuous
 62
     7
100
AcDbCircle
 10
-88.627047
 20
20.0
 30
0.0
 40
1.5
100
AcDbArc
 50
180.0
 51
270.0
  0
CIRCLE
  5
6EDF
330
A
100
AcDbEntity
  8
0
  6
Continuous
 62
     7
100
AcDbCircle
 10
-106.627047
 20
-1.0
 30
0.0
 40
2.649999999999999
  0
LINE
  5
6EE0
330
A
100
AcDbEntity
  8
0
  6
Continuous
 62
     9
100
AcDbLine
 10
113.8729529999999
 20
-8.000000000000227
 30
0.0
 11
114.8729529999999
 21
-8.000000000000227
 31
0.0
  0
LINE
  5
6EE1
330
A
100
AcDbEntity
  8
0
  6
Continuous
 62
     9
100
AcDbLine
 10
113.8729529999999
 20
86.0
 30
0.0
 11
114.8729529999999
 21
86.0
 31
0.0
  0
LINE
  5
6EE2
330
A
100
AcDbEntity
  8
0
  6
Continuous
 62
     7
100
AcDbLine
 10
114.8729529999999
 20
-8.000000000000227
 30
0.0
 11
114.8729529999999
 21
86.0
 31
0.0
  0
LINE
  5
6EE3
330
A
100
AcDbEntity
  8
0
  6
Continuous
 62
     7
100
AcDbLine
 10
113.8729529999999
 20
91.5
 30
0.0
 11
114.8729529999999
 21
91.5
 31
0.0
  0
LINE
  5
6EE4
330
A
100
AcDbEntity
  8
0
  6
Continuous
 62
     7
100
AcDbLine
 10
114.8729529999999
 20
86.0
 30
0.0
 11
114.8729529999999
 21
91.5
 31
0.0
  0
LINE
  5
6EE5
330
A
100
AcDbEntity
  8
0
  6
Continuous
 62
     7
100
AcDbLine
 10
113.8729529999999
 20
-13.5
 30
0.0
 11
114.8729529999999
 21
-13.5
 31
0.0
  0
LINE
  5
6EE6
330
A
100
AcDbEntity
  8
0
  6
Continuous
 62
     7
100
AcDbLine
 10
114.8729529999999
 20
-13.5
 30
0.0
 11
114.8729529999999
 21
-8.000000000000227
 31
0.0
  0
LINE
  5
6EE7
330
A
100
AcDbEntity
  8
0
  6
Continuous
 62
     7
100
AcDbLine
 10
127.3729529999999
 20
91.5
 30
0.0
 11
126.872953
 21
91.5
 31
0.0
  0
LINE
  5
6EE8
330
A
100
AcDbEntity
  8
0
  6
Continuous
 62
     9
100
AcDbLine
 10
127.3729529999999
 20
86.0
 30
0.0
 11
126.872953
 21
86.0
 31
0.0
  0
LINE
  5
6EE9
330
A
100
AcDbEntity
  8
0
  6
Continuous
 62
     7
100
AcDbLine
 10
126.872953
 20
91.5
 30
0.0
 11
126.872953
 21
86.0
 31
0.0
  0
LINE
  5
6EEA
330
A
100
AcDbEntity
  8
0
  6
Continuous
 62
     9
100
AcDbLine
 10
127.3729529999999
 20
-8.000000000000227
 30
0.0
 11
126.872953
 21
-8.000000000000227
 31
0.0
  0
LINE
  5
6EEB
330
A
100
AcDbEntity
  8
0
  6
Continuous
 62
     7
100
AcDbLine
 10
126.872953
 20
86.0
 30
0.0
 11
126.872953
 21
-8.000000000000227
 31
0.0
  0
LINE
  5
6EEC
330
A
100
AcDbEntity
  8
0
  6
Continuous
 62
     7
100
AcDbLine
 10
127.3729529999999
 20
-13.5
 30
0.0
 11
126.872953
 21
-13.5
 31
0.0
  0
LINE
  5
6EED
330
A
100
AcDbEntity
  8
0
  6
Continuous
 62
     7
100
AcDbLine
 10
126.872953
 20
-8.000000000000227
 30
0.0
 11
126.872953
 21
-13.5
 31
0.0
  0
LINE
  5
6EEE
330
A
100
AcDbEntity
  8
0
  6
Continuous
 62
     7
100
AcDbLine
 10
116.372953
 20
78.5
 30
0.0
 11
116.372953
 21
-0.5
 31
0.0
  0
LINE
  5
6EEF
330
A
100
AcDbEntity
  8
0
  6
Continuous
 62
     9
100
AcDbLine
 10
125.872953
 20
78.5
 30
0.0
 11
116.372953
 21
78.5
 31
0.0
  0
LINE
  5
6EF0
330
A
100
AcDbEntity
  8
0
  6
Continuous
 62
     9
100
AcDbLine
 10
125.872953
 20
-0.5
 30
0.0
 11
116.372953
 21
-0.5
 31
0.0
  0
LINE
  5
6EF1
330
A
100
AcDbEntity
  8
0
  6
Continuous
 62
     7
100
AcDbLine
 10
116.372953
 20
87.99999999999977
 30
0.0
 11
116.372953
 21
78.5
 31
0.0
  0
LINE
  5
6EF2
330
A
100
AcDbEntity
  8
0
  6
Continuous
 62
     7
100
AcDbLine
 10
116.372953
 20
-0.5
 30
0.0
 11
116.372953
 21
-10.0
 31
0.0
  0
LINE
  5
6EF3
330
A
100
AcDbEntity
  8
0
  6
Continuous
 62
     9
100
AcDbLine
 10
113.8729529999999
 20
86.0
 30
0.0
 11
114.8729529999999
 21
86.0
 31
0.0
  0
LINE
  5
6EF4
330
A
100
AcDbEntity
  8
0
  6
Continuous
 62
     9
100
AcDbLine
 10
114.8729529999999
 20
86.0
 30
0.0
 11
115.872953
 21
86.0
 31
0.0
  0
LINE
  5
6EF5
330
A
100
AcDbEntity
  8
0
  6
Continuous
 62
     7
100
AcDbLine
 10
113.8729529999999
 20
91.5
 30
0.0
 11
114.8729529999999
 21
91.5
 31
0.0
  0
LINE
  5
6EF6
330
A
100
AcDbEntity
  8
0
  6
Continuous
 62
     7
100
AcDbLine
 10
114.8729529999999
 20
91.5
 30
0.0
 11
115.872953
 21
91.5
 31
0.0
  0
LINE
  5
6EF7
330
A
100
AcDbEntity
  8
0
  6
Continuous
 62
     7
100
AcDbLine
 10
115.872953
 20
86.0
 30
0.0
 11
115.872953
 21
91.5
 31
0.0
  0
LINE
  5
6EF8
330
A
100
AcDbEntity
  8
0
  6
Continuous
 62
     9
100
AcDbLine
 10
113.8729529999999
 20
-8.000000000000227
 30
0.0
 11
114.8729529999999
 21
-8.000000000000227
 31
0.0
  0
LINE
  5
6EF9
330
A
100
AcDbEntity
  8
0
  6
Continuous
 62
     9
100
AcDbLine
 10
114.8729529999999
 20
-8.000000000000227
 30
0.0
 11
115.872953
 21
-8.000000000000227
 31
0.0
  0
LINE
  5
6EFA
330
A
100
AcDbEntity
  8
0
  6
Continuous
 62
     7
100
AcDbLine
 10
115.872953
 20
-8.000000000000227
 30
0.0
 11
115.872953
 21
86.0
 31
0.0
  0
LINE
  5
6EFB
330
A
100
AcDbEntity
  8
0
  6
Continuous
 62
     7
100
AcDbLine
 10
113.8729529999999
 20
-13.5
 30
0.0
 11
114.8729529999999
 21
-13.5
 31
0.0
  0
LINE
  5
6EFC
330
A
100
AcDbEntity
  8
0
  6
Continuous
 62
     7
100
AcDbLine
 10
114.8729529999999
 20
-13.5
 30
0.0
 11
115.872953
 21
-13.5
 31
0.0
  0
LINE
  5
6EFD
330
A
100
AcDbEntity
  8
0
  6
Continuous
 62
     7
100
AcDbLine
 10
115.872953
 20
-13.5
 30
0.0
 11
115.872953
 21
-8.000000000000227
 31
0.0
  0
LINE
  5
6EFE
330
A
100
AcDbEntity
  8
0
  6
Continuous
 62
     9
100
AcDbLine
 10
127.3729529999999
 20
86.0
 30
0.0
 11
126.872953
 21
86.0
 31
0.0
  0
LINE
  5
6EFF
330
A
100
AcDbEntity
  8
0
  6
Continuous
 62
     9
100
AcDbLine
 10
126.872953
 20
86.0
 30
0.0
 11
125.872953
 21
86.0
 31
0.0
  0
LINE
  5
6F00
330
A
100
AcDbEntity
  8
0
  6
Continuous
 62
     9
100
AcDbLine
 10
127.3729529999999
 20
-8.000000000000227
 30
0.0
 11
126.872953
 21
-8.000000000000227
 31
0.0
  0
LINE
  5
6F01
330
A
100
AcDbEntity
  8
0
  6
Continuous
 62
     9
100
AcDbLine
 10
126.872953
 20
-8.000000000000227
 30
0.0
 11
125.872953
 21
-8.000000000000227
 31
0.0
  0
LINE
  5
6F02
330
A
100
AcDbEntity
  8
0
  6
Continuous
 62
     7
100
AcDbLine
 10
125.872953
 20
86.0
 30
0.0
 11
125.872953
 21
-8.000000000000227
 31
0.0
  0
LINE
  5
6F03
330
A
100
AcDbEntity
  8
0
  6
Continuous
 62
     7
100
AcDbLine
 10
127.3729529999999
 20
91.5
 30
0.0
 11
126.872953
 21
91.5
 31
0.0
  0
LINE
  5
6F04
330
A
100
AcDbEntity
  8
0
  6
Continuous
 62
     7
100
AcDbLine
 10
126.872953
 20
91.5
 30
0.0
 11
125.872953
 21
91.5
 31
0.0
  0
LINE
  5
6F05
330
A
100
AcDbEntity
  8
0
  6
Continuous
 62
     7
100
AcDbLine
 10
125.872953
 20
91.5
 30
0.0
 11
125.872953
 21
86.0
 31
0.0
  0
LINE
  5
6F06
330
A
100
AcDbEntity
  8
0
  6
Continuous
 62
     7
100
AcDbLine
 10
127.3729529999999
 20
-13.5
 30
0.0
 11
126.872953
 21
-13.5
 31
0.0
  0
LINE
  5
6F07
330
A
100
AcDbEntity
  8
0
  6
Continuous
 62
     7
100
AcDbLine
 10
126.872953
 20
-13.5
 30
0.0
 11
125.872953
 21
-13.5
 31
0.0
  0
LINE
  5
6F08
330
A
100
AcDbEntity
  8
0
  6
Continuous
 62
     7
100
AcDbLine
 10
125.872953
 20
-8.000000000000227
 30
0.0
 11
125.872953
 21
-13.5
 31
0.0
  0
LINE
  5
6F09
330
A
100
AcDbEntity
  8
0
  6
Continuous
 62
     7
100
AcDbLine
 10
116.372953
 20
78.5
 30
0.0
 11
116.372953
 21
-0.5
 31
0.0
  0
LINE
  5
6F0A
330
A
100
AcDbEntity
  8
0
  6
Continuous
 62
     9
100
AcDbLine
 10
125.872953
 20
78.5
 30
0.0
 11
116.372953
 21
78.5
 31
0.0
  0
LINE
  5
6F0B
330
A
100
AcDbEntity
  8
0
  6
Continuous
 62
     9
100
AcDbLine
 10
125.872953
 20
-0.5
 30
0.0
 11
116.372953
 21
-0.5
 31
0.0
  0
LINE
  5
6F0C
330
A
100
AcDbEntity
  8
0
  6
Continuous
 62
     7
100
AcDbLine
 10
116.372953
 20
87.99999999999977
 30
0.0
 11
116.372953
 21
78.5
 31
0.0
  0
LINE
  5
6F0D
330
A
100
AcDbEntity
  8
0
  6
Continuous
 62
     7
100
AcDbLine
 10
116.372953
 20
-0.5
 30
0.0
 11
116.372953
 21
-10.0
 31
0.0
  0
LINE
  5
6F0E
330
A
100
AcDbEntity
  8
0
  6
Continuous
 62
     9
100
AcDbLine
 10
110.4529239999999
 20
-15.0
 30
0.0
 11
110.4529239999999
 21
93.0
 31
0.0
  0
LINE
  5
6F0F
330
A
100
AcDbEntity
  8
0
  6
Continuous
 62
     7
100
AcDbLine
 10
112.102953
 20
93.0
 30
0.0
 11
112.102953
 21
-15.0
 31
0.0
  0
LINE
  5
6F10
330
A
100
AcDbEntity
  8
0
  6
Continuous
 62
     7
100
AcDbLine
 10
112.102953
 20
-15.0
 30
0.0
 11
110.4529239999999
 21
-15.0
 31
0.0
  0
LINE
  5
6F11
330
A
100
AcDbEntity
  8
0
  6
Continuous
 62
     7
100
AcDbLine
 10
110.4529239999999
 20
93.0
 30
0.0
 11
112.102953
 21
93.0
 31
0.0
  0
LINE
  5
6F12
330
A
100
AcDbEntity
  8
0
  6
Continuous
 62
     7
100
AcDbLine
 10
113.8729529999999
 20
-15.0
 30
0.0
 11
113.8729529999999
 21
93.0
 31
0.0
  0
LINE
  5
6F13
330
A
100
AcDbEntity
  8
0
  6
Continuous
 62
     7
100
AcDbLine
 10
113.8729529999999
 20
-15.0
 30
0.0
 11
112.102953
 21
-15.0
 31
0.0
  0
LINE
  5
6F14
330
A
100
AcDbEntity
  8
0
  6
Continuous
 62
     7
100
AcDbLine
 10
113.8729529999999
 20
93.0
 30
0.0
 11
112.102953
 21
93.0
 31
0.0
  0
LINE
  5
6F15
330
A
100
AcDbEntity
  8
0
  6
Continuous
 62
     9
100
AcDbLine
 10
109.414847
 20
-15.0
 30
0.0
 11
109.414847
 21
93.0
 31
0.0
  0
LINE
  5
6F16
330
A
100
AcDbEntity
  8
0
  6
Continuous
 62
     7
100
AcDbLine
 10
110.4529239999999
 20
-15.0
 30
0.0
 11
109.414847
 21
-15.0
 31
0.0
  0
LINE
  5
6F17
330
A
100
AcDbEntity
  8
0
  6
Continuous
 62
     7
100
AcDbLine
 10
109.414847
 20
93.0
 30
0.0
 11
110.4529239999999
 21
93.0
 31
0.0
  0
LINE
  5
6F18
330
A
100
AcDbEntity
  8
0
  6
Continuous
 62
     9
100
AcDbLine
 10
106.3294799999999
 20
-15.0
 30
0.0
 11
106.3294799999999
 21
93.0
 31
0.0
  0
LINE
  5
6F19
330
A
100
AcDbEntity
  8
0
  6
Continuous
 62
     7
100
AcDbLine
 10
109.414847
 20
-15.0
 30
0.0
 11
106.3294799999999
 21
-15.0
 31
0.0
  0
LINE
  5
6F1A
330
A
100
AcDbEntity
  8
0
  6
Continuous
 62
     7
100
AcDbLine
 10
106.3294799999999
 20
93.0
 30
0.0
 11
109.414847
 21
93.0
 31
0.0
  0
LINE
  5
6F1B
330
A
100
AcDbEntity
  8
0
  6
Continuous
 62
     7
100
AcDbLine
 10
105.872953
 20
-15.0
 30
0.0
 11
105.872953
 21
93.0
 31
0.0
  0
LINE
  5
6F1C
330
A
100
AcDbEntity
  8
0
  6
Continuous
 62
     7
100
AcDbLine
 10
106.3294799999999
 20
-15.0
 30
0.0
 11
105.872953
 21
-15.0
 31
0.0
  0
LINE
  5
6F1D
330
A
100
AcDbEntity
  8
0
  6
Continuous
 62
     7
100
AcDbLine
 10
105.872953
 20
93.0
 30
0.0
 11
106.3294799999999
 21
93.0
 31
0.0
  0
LINE
  5
6F1E
330
A
100
AcDbEntity
  8
0
  6
Continuous
 62
     7
100
AcDbLine
 10
129.142953
 20
-15.0
 30
0.0
 11
127.3729529999999
 21
-15.0
 31
0.0
  0
LINE
  5
6F1F
330
A
100
AcDbEntity
  8
0
  6
Continuous
 62
     7
100
AcDbLine
 10
129.142953
 20
93.0
 30
0.0
 11
127.3729529999999
 21
93.0
 31
0.0
  0
LINE
  5
6F20
330
A
100
AcDbEntity
  8
0
  6
Continuous
 62
     7
100
AcDbLine
 10
129.142953
 20
93.0
 30
0.0
 11
129.142953
 21
-15.0
 31
0.0
  0
LINE
  5
6F21
330
A
100
AcDbEntity
  8
0
  6
Continuous
 62
     7
100
AcDbLine
 10
127.3729529999999
 20
-15.0
 30
0.0
 11
127.3729529999999
 21
93.0
 31
0.0
  0
LINE
  5
6F22
330
A
100
AcDbEntity
  8
0
  6
Continuous
 62
     9
100
AcDbLine
 10
130.792982
 20
93.0
 30
0.0
 11
130.792982
 21
-15.0
 31
0.0
  0
LINE
  5
6F23
330
A
100
AcDbEntity
  8
0
  6
Continuous
 62
     7
100
AcDbLine
 10
129.142953
 20
93.0
 30
0.0
 11
130.792982
 21
93.0
 31
0.0
  0
LINE
  5
6F24
330
A
100
AcDbEntity
  8
0
  6
Continuous
 62
     7
100
AcDbLine
 10
130.792982
 20
-15.0
 30
0.0
 11
129.142953
 21
-15.0
 31
0.0
  0
LINE
  5
6F25
330
A
100
AcDbEntity
  8
0
  6
Continuous
 62
     9
100
AcDbLine
 10
131.831059
 20
93.0
 30
0.0
 11
131.831059
 21
-15.0
 31
0.0
  0
LINE
  5
6F26
330
A
100
AcDbEntity
  8
0
  6
Continuous
 62
     7
100
AcDbLine
 10
130.792982
 20
93.0
 30
0.0
 11
131.831059
 21
93.0
 31
0.0
  0
LINE
  5
6F27
330
A
100
AcDbEntity
  8
0
  6
Continuous
 62
     7
100
AcDbLine
 10
131.831059
 20
-15.0
 30
0.0
 11
130.792982
 21
-15.0
 31
0.0
  0
LINE
  5
6F28
330
A
100
AcDbEntity
  8
0
  6
Continuous
 62
     9
100
AcDbLine
 10
134.916426
 20
93.0
 30
0.0
 11
134.916426
 21
-15.0
 31
0.0
  0
LINE
  5
6F29
330
A
100
AcDbEntity
  8
0
  6
Continuous
 62
     7
100
AcDbLine
 10
131.831059
 20
93.0
 30
0.0
 11
134.916426
 21
93.0
 31
0.0
  0
LINE
  5
6F2A
330
A
100
AcDbEntity
  8
0
  6
Continuous
 62
     7
100
AcDbLine
 10
134.916426
 20
-15.0
 30
0.0
 11
131.831059
 21
-15.0
 31
0.0
  0
LINE
  5
6F2B
330
A
100
AcDbEntity
  8
0
  6
Continuous
 62
     7
100
AcDbLine
 10
135.372953
 20
-15.0
 30
0.0
 11
135.372953
 21
93.0
 31
0.0
  0
LINE
  5
6F2C
330
A
100
AcDbEntity
  8
0
  6
Continuous
 62
     7
100
AcDbLine
 10
134.916426
 20
93.0
 30
0.0
 11
135.372953
 21
93.0
 31
0.0
  0
LINE
  5
6F2D
330
A
100
AcDbEntity
  8
0
  6
Continuous
 62
     7
100
AcDbLine
 10
135.372953
 20
-15.0
 30
0.0
 11
134.916426
 21
-15.0
 31
0.0
  0
LINE
  5
6F2E
330
A
100
AcDbEntity
  8
0
  6
Continuous
 62
     9
100
AcDbLine
 10
116.372953
 20
78.5
 30
0.0
 11
115.872953
 21
78.5
 31
0.0
  0
LINE
  5
6F2F
330
A
100
AcDbEntity
  8
0
  6
Continuous
 62
     7
100
AcDbLine
 10
115.872953
 20
86.0
 30
0.0
 11
116.372953
 21
86.0
 31
0.0
  0
LINE
  5
6F30
330
A
100
AcDbEntity
  8
0
  6
Continuous
 62
     9
100
AcDbLine
 10
116.372953
 20
-0.5
 30
0.0
 11
115.872953
 21
-0.5
 31
0.0
  0
LINE
  5
6F31
330
A
100
AcDbEntity
  8
0
  6
Continuous
 62
     7
100
AcDbLine
 10
116.372953
 20
-8.000000000000227
 30
0.0
 11
115.872953
 21
-8.000000000000227
 31
0.0
  0
LINE
  5
6F32
330
A
100
AcDbEntity
  8
0
  6
Continuous
 62
     9
100
AcDbLine
 10
104.872953
 20
8.999999999999772
 30
0.0
 11
104.872953
 21
69.0
 31
0.0
  0
LINE
  5
6F33
330
A
100
AcDbEntity
  8
0
  6
Continuous
 62
     7
100
AcDbLine
 10
105.872953
 20
69.0
 30
0.0
 11
104.872953
 21
69.0
 31
0.0
  0
LINE
  5
6F34
330
A
100
AcDbEntity
  8
0
  6
Continuous
 62
     7
100
AcDbLine
 10
104.872953
 20
8.999999999999772
 30
0.0
 11
105.872953
 21
8.999999999999772
 31
0.0
  0
LINE
  5
6F35
330
A
100
AcDbEntity
  8
0
  6
Continuous
 62
     9
100
AcDbLine
 10
136.872953
 20
69.0
 30
0.0
 11
136.872953
 21
8.999999999999772
 31
0.0
  0
LINE
  5
6F36
330
A
100
AcDbEntity
  8
0
  6
Continuous
 62
     7
100
AcDbLine
 10
136.872953
 20
69.0
 30
0.0
 11
135.372953
 21
69.0
 31
0.0
  0
LINE
  5
6F37
330
A
100
AcDbEntity
  8
0
  6
Continuous
 62
     7
100
AcDbLine
 10
135.372953
 20
8.999999999999772
 30
0.0
 11
136.872953
 21
8.999999999999772
 31
0.0
  0
LINE
  5
6F38
330
A
100
AcDbEntity
  8
0
  6
Continuous
 62
     7
100
AcDbLine
 10
93.87295299999999
 20
-15.0
 30
0.0
 11
105.872953
 21
-15.0
 31
0.0
  0
LINE
  5
6F39
330
A
100
AcDbEntity
  8
0
  6
Continuous
 62
     9
100
AcDbLine
 10
93.87295299999999
 20
93.0
 30
0.0
 11
93.87295299999999
 21
-15.0
 31
0.0
  0
LINE
  5
6F3A
330
A
100
AcDbEntity
  8
0
  6
Continuous
 62
     7
100
AcDbLine
 10
93.87295299999999
 20
93.0
 30
0.0
 11
105.872953
 21
93.0
 31
0.0
  0
ARC
  5
6F3B
330
A
100
AcDbEntity
  8
0
  6
Continuous
 62
     7
100
AcDbCircle
 10
100.872953
 20
78.99999999999987
 30
0.0
 40
5.2
100
AcDbArc
 50
15.94236899999694
 51
270.0
  0
ARC
  5
6F3C
330
A
100
AcDbEntity
  8
0
  6
Continuous
 62
     7
100
AcDbCircle
 10
100.872953
 20
78.99999999999987
 30
0.0
 40
5.2
100
AcDbArc
 50
270.0
 51
344.057631000003
  0
ARC
  5
6F3D
330
A
100
AcDbEntity
  8
0
  6
Continuous
 62
     7
100
AcDbCircle
 10
100.872953
 20
-1.0
 30
0.0
 40
5.2
100
AcDbArc
 50
15.94236899999694
 51
270.0
  0
ARC
  5
6F3E
330
A
100
AcDbEntity
  8
0
  6
Continuous
 62
     7
100
AcDbCircle
 10
100.872953
 20
-1.0
 30
0.0
 40
5.2
100
AcDbArc
 50
270.0
 51
344.057631000003
  0
LINE
  5
6F3F
330
A
100
AcDbEntity
  8
0
  6
Continuous
 62
     7
100
AcDbLine
 10
127.3729529999999
 20
93.0
 30
0.0
 11
113.8729529999999
 21
93.0
 31
0.0
  0
LINE
  5
6F40
330
A
100
AcDbEntity
  8
0
  6
Continuous
 62
     7
100
AcDbLine
 10
93.37295299999999
 20
-15.0
 30
0.0
 11
93.37295299999999
 21
93.0
 31
0.0
  0
LINE
  5
6F41
330
A
100
AcDbEntity
  8
0
  6
Continuous
 62
     7
100
AcDbLine
 10
93.37295299999999
 20
93.0
 30
0.0
 11
93.87295299999999
 21
93.0
 31
0.0
  0
LINE
  5
6F42
330
A
100
AcDbEntity
  8
0
  6
Continuous
 62
     7
100
AcDbLine
 10
93.87295299999999
 20
-15.0
 30
0.0
 11
93.37295299999999
 21
-15.0
 31
0.0
  0
LINE
  5
6F43
330
A
100
AcDbEntity
  8
0
  6
Continuous
 62
     9
100
AcDbLine
 10
147.872953
 20
-15.0
 30
0.0
 11
147.872953
 21
93.0
 31
0.0
  0
LINE
  5
6F44
330
A
100
AcDbEntity
  8
0
  6
Continuous
 62
     7
100
AcDbLine
 10
147.872953
 20
93.0
 30
0.0
 11
148.372953
 21
93.0
 31
0.0
  0
LINE
  5
6F45
330
A
100
AcDbEntity
  8
0
  6
Continuous
 62
     7
100
AcDbLine
 10
148.372953
 20
93.0
 30
0.0
 11
148.372953
 21
-15.0
 31
0.0
  0
LINE
  5
6F46
330
A
100
AcDbEntity
  8
0
  6
Continuous
 62
     7
100
AcDbLine
 10
148.372953
 20
-15.0
 30
0.0
 11
147.872953
 21
-15.0
 31
0.0
  0
LINE
  5
6F47
330
A
100
AcDbEntity
  8
0
  6
Continuous
 62
     7
100
AcDbLine
 10
135.372953
 20
93.0
 30
0.0
 11
147.872953
 21
93.0
 31
0.0
  0
CIRCLE
  5
6F48
330
A
100
AcDbEntity
  8
0
  6
Continuous
 62
     7
100
AcDbCircle
 10
140.872953
 20
78.99999999999987
 30
0.0
 40
5.2
  0
CIRCLE
  5
6F49
330
A
100
AcDbEntity
  8
0
  6
Continuous
 62
     7
100
AcDbCircle
 10
140.872953
 20
-1.0
 30
0.0
 40
5.2
  0
LINE
  5
6F4A
330
A
100
AcDbEntity
  8
0
  6
Continuous
 62
     7
100
AcDbLine
 10
135.372953
 20
-15.0
 30
0.0
 11
147.872953
 21
-15.0
 31
0.0
  0
LINE
  5
6F4B
330
A
100
AcDbEntity
  8
0
  6
Continuous
 62
     7
100
AcDbLine
 10
113.8729529999999
 20
-15.0
 30
0.0
 11
127.3729529999999
 21
-15.0
 31
0.0
  0
CIRCLE
  5
6F4C
330
A
100
AcDbEntity
  8
0
  6
Continuous
 62
     7
100
AcDbCircle
 10
140.872953
 20
78.99999999999987
 30
0.0
 40
2.649999999999999
  0
CIRCLE
  5
6F4D
330
A
100
AcDbEntity
  8
0
  6
Continuous
 62
     7
100
AcDbCircle
 10
140.872953
 20
-1.0
 30
0.0
 40
2.649999999999999
  0
CIRCLE
  5
6F4E
330
A
100
AcDbEntity
  8
0
  6
Continuous
 62
     7
100
AcDbCircle
 10
100.872953
 20
-1.0
 30
0.0
 40
2.649999999999999
  0
CIRCLE
  5
6F4F
330
A
100
AcDbEntity
  8
0
  6
Continuous
 62
     7
100
AcDbCircle
 10
100.872953
 20
78.99999999999987
 30
0.0
 40
2.649999999999999
  0
LINE
  5
6F50
330
A
100
AcDbEntity
  8
0
  6
Continuous
 62
     7
100
AcDbLine
 10
125.872953
 20
87.99999999999977
 30
0.0
 11
116.372953
 21
87.99999999999977
 31
0.0
  0
LINE
  5
6F51
330
A
100
AcDbEntity
  8
0
  6
Continuous
 62
     7
100
AcDbLine
 10
116.372953
 20
-10.0
 30
0.0
 11
125.872953
 21
-10.0
 31
0.0
  0
LINE
  5
6F52
330
A
100
AcDbEntity
  8
0
  6
Continuous
 62
     7
100
AcDbLine
 10
125.872953
 20
87.99999999999977
 30
0.0
 11
116.372953
 21
87.99999999999977
 31
0.0
  0
LINE
  5
6F53
330
A
100
AcDbEntity
  8
0
  6
Continuous
 62
     7
100
AcDbLine
 10
116.372953
 20
-10.0
 30
0.0
 11
125.872953
 21
-10.0
 31
0.0
  0
LINE
  5
6F54
330
A
100
AcDbEntity
  8
0
  6
Continuous
 62
     9
100
AcDbLine
 10
43.0
 20
142.5
 30
0.0
 11
43.0
 21
143.5
 31
0.0
  0
LINE
  5
6F55
330
A
100
AcDbEntity
  8
0
  6
Continuous
 62
     9
100
AcDbLine
 10
-16.00000000000001
 20
142.5
 30
0.0
 11
-16.00000000000001
 21
143.5
 31
0.0
  0
LINE
  5
6F56
330
A
100
AcDbEntity
  8
0
  6
Continuous
 62
     7
100
AcDbLine
 10
43.0
 20
143.5
 30
0.0
 11
-16.00000000000001
 21
143.5
 31
0.0
  0
LINE
  5
6F57
330
A
100
AcDbEntity
  8
0
  6
Continuous
 62
     7
100
AcDbLine
 10
-21.50000000000002
 20
142.5
 30
0.0
 11
-21.50000000000002
 21
143.5
 31
0.0
  0
LINE
  5
6F58
330
A
100
AcDbEntity
  8
0
  6
Continuous
 62
     7
100
AcDbLine
 10
-16.00000000000001
 20
143.5
 30
0.0
 11
-21.50000000000002
 21
143.5
 31
0.0
  0
LINE
  5
6F59
330
A
100
AcDbEntity
  8
0
  6
Continuous
 62
     7
100
AcDbLine
 10
48.5
 20
142.5
 30
0.0
 11
48.5
 21
143.5
 31
0.0
  0
LINE
  5
6F5A
330
A
100
AcDbEntity
  8
0
  6
Continuous
 62
     7
100
AcDbLine
 10
48.5
 20
143.5
 30
0.0
 11
43.0
 21
143.5
 31
0.0
  0
LINE
  5
6F5B
330
A
100
AcDbEntity
  8
0
  6
Continuous
 62
     9
100
AcDbLine
 10
-16.00000000000001
 20
156.0
 30
0.0
 11
-16.00000000000001
 21
155.5
 31
0.0
  0
LINE
  5
6F5C
330
A
100
AcDbEntity
  8
0
  6
Continuous
 62
     9
100
AcDbLine
 10
43.0
 20
156.0
 30
0.0
 11
43.0
 21
155.5
 31
0.0
  0
LINE
  5
6F5D
330
A
100
AcDbEntity
  8
0
  6
Continuous
 62
     7
100
AcDbLine
 10
-16.00000000000001
 20
155.5
 30
0.0
 11
43.0
 21
155.5
 31
0.0
  0
LINE
  5
6F5E
330
A
100
AcDbEntity
  8
0
  6
Continuous
 62
     7
100
AcDbLine
 10
-21.50000000000002
 20
156.0
 30
0.0
 11
-21.50000000000002
 21
155.5
 31
0.0
  0
LINE
  5
6F5F
330
A
100
AcDbEntity
  8
0
  6
Continuous
 62
     7
100
AcDbLine
 10
-21.50000000000002
 20
155.5
 30
0.0
 11
-16.00000000000001
 21
155.5
 31
0.0
  0
LINE
  5
6F60
330
A
100
AcDbEntity
  8
0
  6
Continuous
 62
     7
100
AcDbLine
 10
48.5
 20
156.0
 30
0.0
 11
48.5
 21
155.5
 31
0.0
  0
LINE
  5
6F61
330
A
100
AcDbEntity
  8
0
  6
Continuous
 62
     7
100
AcDbLine
 10
43.0
 20
155.5
 30
0.0
 11
48.5
 21
155.5
 31
0.0
  0
LINE
  5
6F62
330
A
100
AcDbEntity
  8
0
  6
Continuous
 62
     7
100
AcDbLine
 10
-9.000000000000012
 20
145.0
 30
0.0
 11
9.083325999999999
 21
145.0
 31
0.0
  0
LINE
  5
6F63
330
A
100
AcDbEntity
  8
0
  6
Continuous
 62
     7
100
AcDbLine
 10
-9.000000000000012
 20
154.5
 30
0.0
 11
-9.000000000000012
 21
145.0
 31
0.0
  0
LINE
  5
6F64
330
A
100
AcDbEntity
  8
0
  6
Continuous
 62
     9
100
AcDbLine
 10
9.083325999999999
 20
154.5
 30
0.0
 11
9.083325999999999
 21
145.0
 31
0.0
  0
LINE
  5
6F65
330
A
100
AcDbEntity
  8
0
  6
Continuous
 62
     9
100
AcDbLine
 10
13.14911099999999
 20
154.5
 30
0.0
 11
13.14911099999999
 21
145.0
 31
0.0
  0
LINE
  5
6F66
330
A
100
AcDbEntity
  8
0
  6
Continuous
 62
     7
100
AcDbLine
 10
13.14911099999999
 20
145.0
 30
0.0
 11
9.083325999999999
 21
145.0
 31
0.0
  0
LINE
  5
6F67
330
A
100
AcDbEntity
  8
0
  6
Continuous
 62
     7
100
AcDbLine
 10
43.0
 20
154.5
 30
0.0
 11
43.0
 21
145.0
 31
0.0
  0
LINE
  5
6F68
330
A
100
AcDbEntity
  8
0
  6
Continuous
 62
     7
100
AcDbLine
 10
13.14911099999999
 20
145.0
 30
0.0
 11
43.0
 21
145.0
 31
0.0
  0
ARC
  5
6F69
330
A
100
AcDbEntity
  8
0
  6
Continuous
 62
     7
100
AcDbCircle
 10
16.5
 20
149.5
 30
0.0
 40
6.025
100
AcDbArc
 50
304.3547620000015
 51
311.598023
  0
ARC
  5
6F6A
330
A
100
AcDbEntity
  8
0
  6
Continuous
 62
     7
100
AcDbCircle
 10
16.5
 20
149.5
 30
0.0
 40
6.025
100
AcDbArc
 50
228.401977
 51
236.2090600000017
  0
LINE
  5
6F6B
330
A
100
AcDbEntity
  8
0
  6
Continuous
 62
     9
100
AcDbLine
 10
43.0
 20
142.5
 30
0.0
 11
43.0
 21
143.5
 31
0.0
  0
LINE
  5
6F6C
330
A
100
AcDbEntity
  8
0
  6
Continuous
 62
     9
100
AcDbLine
 10
43.0
 20
143.5
 30
0.0
 11
43.0
 21
144.5
 31
0.0
  0
LINE
  5
6F6D
330
A
100
AcDbEntity
  8
0
  6
Continuous
 62
     9
100
AcDbLine
 10
-16.00000000000001
 20
142.5
 30
0.0
 11
-16.00000000000001
 21
143.5
 31
0.0
  0
LINE
  5
6F6E
330
A
100
AcDbEntity
  8
0
  6
Continuous
 62
     9
100
AcDbLine
 10
-16.00000000000001
 20
143.5
 30
0.0
 11
-16.00000000000001
 21
144.5
 31
0.0
  0
LINE
  5
6F6F
330
A
100
AcDbEntity
  8
0
  6
Continuous
 62
     7
100
AcDbLine
 10
43.0
 20
144.5
 30
0.0
 11
-16.00000000000001
 21
144.5
 31
0.0
  0
LINE
  5
6F70
330
A
100
AcDbEntity
  8
0
  6
Continuous
 62
     7
100
AcDbLine
 10
48.5
 20
142.5
 30
0.0
 11
48.5
 21
143.5
 31
0.0
  0
LINE
  5
6F71
330
A
100
AcDbEntity
  8
0
  6
Continuous
 62
     7
100
AcDbLine
 10
48.5
 20
143.5
 30
0.0
 11
48.5
 21
144.5
 31
0.0
  0
LINE
  5
6F72
330
A
100
AcDbEntity
  8
0
  6
Continuous
 62
     7
100
AcDbLine
 10
48.5
 20
144.5
 30
0.0
 11
43.0
 21
144.5
 31
0.0
  0
LINE
  5
6F73
330
A
100
AcDbEntity
  8
0
  6
Continuous
 62
     7
100
AcDbLine
 10
-21.50000000000002
 20
142.5
 30
0.0
 11
-21.50000000000002
 21
143.5
 31
0.0
  0
LINE
  5
6F74
330
A
100
AcDbEntity
  8
0
  6
Continuous
 62
     7
100
AcDbLine
 10
-21.50000000000002
 20
143.5
 30
0.0
 11
-21.50000000000002
 21
144.5
 31
0.0
  0
LINE
  5
6F75
330
A
100
AcDbEntity
  8
0
  6
Continuous
 62
     7
100
AcDbLine
 10
-16.00000000000001
 20
144.5
 30
0.0
 11
-21.50000000000002
 21
144.5
 31
0.0
  0
LINE
  5
6F76
330
A
100
AcDbEntity
  8
0
  6
Continuous
 62
     9
100
AcDbLine
 10
-16.00000000000001
 20
156.0
 30
0.0
 11
-16.00000000000001
 21
155.5
 31
0.0
  0
LINE
  5
6F77
330
A
100
AcDbEntity
  8
0
  6
Continuous
 62
     9
100
AcDbLine
 10
-16.00000000000001
 20
155.5
 30
0.0
 11
-16.00000000000001
 21
154.5
 31
0.0
  0
LINE
  5
6F78
330
A
100
AcDbEntity
  8
0
  6
Continuous
 62
     9
100
AcDbLine
 10
43.0
 20
156.0
 30
0.0
 11
43.0
 21
155.5
 31
0.0
  0
LINE
  5
6F79
330
A
100
AcDbEntity
  8
0
  6
Continuous
 62
     9
100
AcDbLine
 10
43.0
 20
155.5
 30
0.0
 11
43.0
 21
154.5
 31
0.0
  0
LINE
  5
6F7A
330
A
100
AcDbEntity
  8
0
  6
Continuous
 62
     7
100
AcDbLine
 10
-16.00000000000001
 20
154.5
 30
0.0
 11
43.0
 21
154.5
 31
0.0
  0
LINE
  5
6F7B
330
A
100
AcDbEntity
  8
0
  6
Continuous
 62
     7
100
AcDbLine
 10
-21.50000000000002
 20
156.0
 30
0.0
 11
-21.50000000000002
 21
155.5
 31
0.0
  0
LINE
  5
6F7C
330
A
100
AcDbEntity
  8
0
  6
Continuous
 62
     7
100
AcDbLine
 10
-21.50000000000002
 20
155.5
 30
0.0
 11
-21.50000000000002
 21
154.5
 31
0.0
  0
LINE
  5
6F7D
330
A
100
AcDbEntity
  8
0
  6
Continuous
 62
     7
100
AcDbLine
 10
-21.50000000000002
 20
154.5
 30
0.0
 11
-16.00000000000001
 21
154.5
 31
0.0
  0
LINE
  5
6F7E
330
A
100
AcDbEntity
  8
0
  6
Continuous
 62
     7
100
AcDbLine
 10
48.5
 20
156.0
 30
0.0
 11
48.5
 21
155.5
 31
0.0
  0
LINE
  5
6F7F
330
A
100
AcDbEntity
  8
0
  6
Continuous
 62
     7
100
AcDbLine
 10
48.5
 20
155.5
 30
0.0
 11
48.5
 21
154.5
 31
0.0
  0
LINE
  5
6F80
330
A
100
AcDbEntity
  8
0
  6
Continuous
 62
     7
100
AcDbLine
 10
43.0
 20
154.5
 30
0.0
 11
48.5
 21
154.5
 31
0.0
  0
LINE
  5
6F81
330
A
100
AcDbEntity
  8
0
  6
Continuous
 62
     7
100
AcDbLine
 10
-9.000000000000012
 20
154.5
 30
0.0
 11
-9.000000000000012
 21
145.0
 31
0.0
  0
LINE
  5
6F82
330
A
100
AcDbEntity
  8
0
  6
Continuous
 62
     9
100
AcDbLine
 10
9.083325999999999
 20
154.5
 30
0.0
 11
9.083325999999999
 21
145.0
 31
0.0
  0
LINE
  5
6F83
330
A
100
AcDbEntity
  8
0
  6
Continuous
 62
     7
100
AcDbLine
 10
-9.000000000000012
 20
145.0
 30
0.0
 11
9.083325999999999
 21
145.0
 31
0.0
  0
LINE
  5
6F84
330
A
100
AcDbEntity
  8
0
  6
Continuous
 62
     9
100
AcDbLine
 10
13.14911099999999
 20
154.5
 30
0.0
 11
13.14911099999999
 21
145.0
 31
0.0
  0
LINE
  5
6F85
330
A
100
AcDbEntity
  8
0
  6
Continuous
 62
     7
100
AcDbLine
 10
13.14911099999999
 20
145.0
 30
0.0
 11
9.083325999999999
 21
145.0
 31
0.0
  0
LINE
  5
6F86
330
A
100
AcDbEntity
  8
0
  6
Continuous
 62
     7
100
AcDbLine
 10
43.0
 20
154.5
 30
0.0
 11
43.0
 21
145.0
 31
0.0
  0
LINE
  5
6F87
330
A
100
AcDbEntity
  8
0
  6
Continuous
 62
     7
100
AcDbLine
 10
13.14911099999999
 20
145.0
 30
0.0
 11
43.0
 21
145.0
 31
0.0
  0
ARC
  5
6F88
330
A
100
AcDbEntity
  8
0
  6
Continuous
 62
     7
100
AcDbCircle
 10
47.75
 20
141.5
 30
0.0
 40
3.995
100
AcDbArc
 50
0.0
 51
55.7223330000007
  0
ARC
  5
6F89
330
A
100
AcDbEntity
  8
0
  6
Continuous
 62
     7
100
AcDbCircle
 10
47.75
 20
141.5
 30
0.0
 40
3.995
100
AcDbArc
 50
286.0256770000002
 51
0.0
  0
ARC
  5
6F8A
330
A
100
AcDbEntity
  8
0
  6
Continuous
 62
     7
100
AcDbCircle
 10
-21.361349
 20
139.2107049999997
 30
0.0
 40
1.5
100
AcDbArc
 50
184.9999999999998
 51
231.1880309999994
  0
LINE
  5
6F8B
330
A
100
AcDbEntity
  8
0
  6
Continuous
 62
     7
100
AcDbLine
 10
50.0
 20
142.5
 30
0.0
 11
50.0
 21
141.5
 31
0.0
  0
ARC
  5
6F8C
330
A
100
AcDbEntity
  8
0
  6
Continuous
 62
     7
100
AcDbCircle
 10
43.0
 20
141.5
 30
0.0
 40
7.0
100
AcDbArc
 50
270.0
 51
0.0
  0
LINE
  5
6F8D
330
A
100
AcDbEntity
  8
0
  6
Continuous
 62
     7
100
AcDbLine
 10
43.0
 20
134.5
 30
0.0
 11
-12.9
 21
134.5
 31
0.0
  0
LINE
  5
6F8E
330
A
100
AcDbEntity
  8
0
  6
Continuous
 62
     7
100
AcDbLine
 10
-23.00000000000002
 20
142.5
 30
0.0
 11
-23.00000000000002
 21
140.73
 31
0.0
  0
LINE
  5
6F8F
330
A
100
AcDbEntity
  8
0
  6
Continuous
 62
     7
100
AcDbLine
 10
-23.00000000000002
 20
140.73
 30
0.0
 11
-22.85564100000001
 21
139.079971
 31
0.0
  0
LINE
  5
6F90
330
A
100
AcDbEntity
  8
0
  6
Continuous
 62
     7
100
AcDbLine
 10
50.0
 20
142.5
 30
0.0
 11
-23.00000000000002
 21
142.5
 31
0.0
  0
ARC
  5
6F91
330
A
100
AcDbEntity
  8
0
  6
Continuous
 62
     7
100
AcDbCircle
 10
-12.9
 20
149.7299999999996
 30
0.0
 40
15.0
100
AcDbArc
 50
231.1880309999994
 51
260.0298959999993
  0
LINE
  5
6F92
330
A
100
AcDbEntity
  8
0
  6
Continuous
 62
     7
100
AcDbLine
 10
-15.49701399999999
 20
134.9565269999997
 30
0.0
 11
-12.9
 21
134.5
 31
0.0
  0
ARC
  5
6F93
330
A
100
AcDbEntity
  8
0
  6
Continuous
 62
     7
100
AcDbCircle
 10
43.0
 20
157.0
 30
0.0
 40
7.0
100
AcDbArc
 50
0.0
 51
90.0
  0
LINE
  5
6F94
330
A
100
AcDbEntity
  8
0
  6
Continuous
 62
     7
100
AcDbLine
 10
50.0
 20
157.0
 30
0.0
 11
50.0
 21
156.0
 31
0.0
  0
LINE
  5
6F95
330
A
100
AcDbEntity
  8
0
  6
Continuous
 62
     7
100
AcDbLine
 10
50.0
 20
156.0
 30
0.0
 11
-23.00000000000002
 21
156.0
 31
0.0
  0
LINE
  5
6F96
330
A
100
AcDbEntity
  8
0
  6
Continuous
 62
     7
100
AcDbLine
 10
-23.00000000000002
 20
157.7699999999999
 30
0.0
 11
-23.00000000000002
 21
156.0
 31
0.0
  0
LINE
  5
6F97
330
A
100
AcDbEntity
  8
0
  6
Continuous
 62
     7
100
AcDbLine
 10
-22.85564100000001
 20
159.4200289999996
 30
0.0
 11
-23.00000000000002
 21
157.7699999999999
 31
0.0
  0
LINE
  5
6F98
330
A
100
AcDbEntity
  8
0
  6
Continuous
 62
     7
100
AcDbLine
 10
-12.9
 20
164.0
 30
0.0
 11
-15.49701399999999
 21
163.543473
 31
0.0
  0
LINE
  5
6F99
330
A
100
AcDbEntity
  8
0
  6
Continuous
 62
     7
100
AcDbLine
 10
43.0
 20
164.0
 30
0.0
 11
-12.9
 21
164.0
 31
0.0
  0
ARC
  5
6F9A
330
A
100
AcDbEntity
  8
0
  6
Continuous
 62
     7
100
AcDbCircle
 10
-12.9
 20
148.77
 30
0.0
 40
15.0
100
AcDbArc
 50
99.97010400000064
 51
128.8119690000005
  0
ARC
  5
6F9B
330
A
100
AcDbEntity
  8
0
  6
Continuous
 62
     7
100
AcDbCircle
 10
-21.361349
 20
159.2892949999999
 30
0.0
 40
1.5
100
AcDbArc
 50
128.8119690000005
 51
175.0000000000002
  0
LINE
  5
6F9C
330
A
100
AcDbEntity
  8
0
  6
Continuous
 62
     9
100
AcDbLine
 10
7.728064000000017
 20
145.0
 30
0.0
 11
7.728064000000017
 21
144.5
 31
0.0
  0
LINE
  5
6F9D
330
A
100
AcDbEntity
  8
0
  6
Continuous
 62
     7
100
AcDbLine
 10
3.283883000000001
 20
144.5
 30
0.0
 11
3.283883000000001
 21
145.0
 31
0.0
  0
LINE
  5
6F9E
330
A
100
AcDbEntity
  8
0
  6
Continuous
 62
     7
100
AcDbLine
 10
-2.283882000000004
 20
145.0
 30
0.0
 11
-2.283882000000004
 21
144.5
 31
0.0
  0
LINE
  5
6F9F
330
A
100
AcDbEntity
  8
0
  6
Continuous
 62
     7
100
AcDbLine
 10
-7.500000000000013
 20
145.0
 30
0.0
 11
-7.500000000000013
 21
144.5
 31
0.0
  0
LINE
  5
6FA0
330
A
100
AcDbEntity
  8
0
  6
Continuous
 62
     7
100
AcDbLine
 10
12.5
 20
145.0
 30
0.0
 11
12.5
 21
144.5
 31
0.0
  0
LINE
  5
6FA1
330
A
100
AcDbEntity
  8
0
  6
Continuous
 62
     7
100
AcDbLine
 10
50.0
 20
143.5
 30
0.0
 11
48.5
 21
143.5
 31
0.0
  0
LINE
  5
6FA2
330
A
100
AcDbEntity
  8
0
  6
Continuous
 62
     7
100
AcDbLine
 10
20.5
 20
144.5
 30
0.0
 11
20.5
 21
145.0
 31
0.0
  0
LINE
  5
6FA3
330
A
100
AcDbEntity
  8
0
  6
Continuous
 62
     7
100
AcDbLine
 10
50.0
 20
156.0
 30
0.0
 11
50.0
 21
143.5
 31
0.0
  0
ARC
  5
6FA4
330
A
100
AcDbEntity
  8
0
  6
Continuous
 62
     7
100
AcDbCircle
 10
47.75
 20
141.5
 30
0.0
 40
3.9
100
AcDbArc
 50
287.6400700000001
 51
54.76558199999914
  0
ARC
  5
6FA5
330
A
100
AcDbEntity
  8
0
  6
Continuous
 62
     7
100
AcDbCircle
 10
47.75
 20
141.5
 30
0.0
 40
3.6
100
AcDbArc
 50
293.2085430000004
 51
51.31781299999829
  0
LINE
  5
6FA6
330
A
100
AcDbEntity
  8
0
  6
Continuous
 62
     7
100
AcDbLine
 10
48.90470099999999
 20
142.5
 30
0.0
 11
48.61602600000001
 21
143.0
 31
0.0
  0
LINE
  5
6FA7
330
A
100
AcDbEntity
  8
0
  6
Continuous
 62
     7
100
AcDbLine
 10
48.61602600000001
 20
143.0
 30
0.0
 11
48.5
 21
143.0
 31
0.0
  0
ARC
  5
6FA8
330
A
100
AcDbEntity
  8
0
  6
Continuous
 62
     7
100
AcDbCircle
 10
47.75
 20
141.5
 30
0.0
 40
1.5
100
AcDbArc
 50
41.81031499999942
 51
59.9999999999995
  0
ARC
  5
6FA9
330
A
100
AcDbEntity
  8
0
  6
Continuous
 62
     7
100
AcDbCircle
 10
16.5
 20
149.5
 30
0.0
 40
5.25
100
AcDbArc
 50
238.9972810000007
 51
252.2472100000011
  0
ARC
  5
6FAA
330
A
100
AcDbEntity
  8
0
  6
Continuous
 62
     7
100
AcDbCircle
 10
16.5
 20
149.5
 30
0.0
 40
5.25
100
AcDbArc
 50
287.7527899999989
 51
301.0027189999993
  0
ARC
  5
6FAB
330
A
100
AcDbEntity
  8
0
  6
Continuous
 62
     7
100
AcDbCircle
 10
16.5
 20
149.5
 30
0.0
 40
5.75
100
AcDbArc
 50
299.5918459999988
 51
308.4999499999988
  0
ARC
  5
6FAC
330
A
100
AcDbEntity
  8
0
  6
Continuous
 62
     7
100
AcDbCircle
 10
16.5
 20
149.5
 30
0.0
 40
5.75
100
AcDbArc
 50
231.5000500000012
 51
240.4081540000011
  0
ARC
  5
6FAD
330
A
100
AcDbEntity
  8
0
  6
Continuous
 62
     9
100
AcDbCircle
 10
16.5
 20
149.5
 30
0.0
 40
5.799999999999998
100
AcDbArc
 50
230.8832559999996
 51
239.5496860000004
  0
ARC
  5
6FAE
330
A
100
AcDbEntity
  8
0
  6
Continuous
 62
     9
100
AcDbCircle
 10
16.5
 20
149.5
 30
0.0
 40
5.799999999999998
100
AcDbArc
 50
300.4503139999996
 51
309.1167440000004
  0
ARC
  5
6FAF
330
A
100
AcDbEntity
  8
0
  6
Continuous
 62
     7
100
AcDbCircle
 10
16.5
 20
149.5
 30
0.0
 40
6.0
100
AcDbArc
 50
303.5573099999993
 51
311.810314999999
  0
ARC
  5
6FB0
330
A
100
AcDbEntity
  8
0
  6
Continuous
 62
     7
100
AcDbCircle
 10
16.5
 20
149.5
 30
0.0
 40
6.0
100
AcDbArc
 50
228.5903780000005
 51
236.4426900000006
  0
ARC
  5
6FB1
330
A
100
AcDbEntity
  8
0
  6
Continuous
 62
     7
100
AcDbCircle
 10
-18.203597
 20
149.5
 30
0.0
 40
71.0
100
AcDbArc
 50
348.2158439999982
 51
11.78415600000176
  0
LINE
  5
6FB2
330
A
100
AcDbEntity
  8
0
  6
Continuous
 62
     7
100
AcDbLine
 10
51.29999999999999
 20
164.0
 30
0.0
 11
51.29999999999999
 21
176.5
 31
0.0
  0
ARC
  5
6FB3
330
A
100
AcDbEntity
  8
0
  6
Continuous
 62
     7
100
AcDbCircle
 10
51.79999999999998
 20
176.5
 30
0.0
 40
0.5
100
AcDbArc
 50
90.0
 51
180.0
  0
LINE
  5
6FB4
330
A
100
AcDbEntity
  8
0
  6
Continuous
 62
     7
100
AcDbLine
 10
51.79999999999998
 20
177.0
 30
0.0
 11
56.5
 21
177.0
 31
0.0
  0
ARC
  5
6FB5
330
A
100
AcDbEntity
  8
0
  6
Continuous
 62
     7
100
AcDbCircle
 10
51.79999999999998
 20
122.5
 30
0.0
 40
0.5
100
AcDbArc
 50
180.0
 51
270.0
  0
LINE
  5
6FB6
330
A
100
AcDbEntity
  8
0
  6
Continuous
 62
     7
100
AcDbLine
 10
51.29999999999999
 20
122.5
 30
0.0
 11
51.29999999999999
 21
135.0
 31
0.0
  0
LINE
  5
6FB7
330
A
100
AcDbEntity
  8
0
  6
Continuous
 62
     7
100
AcDbLine
 10
56.5
 20
177.0
 30
0.0
 11
56.5
 21
122.0
 31
0.0
  0
LINE
  5
6FB8
330
A
100
AcDbEntity
  8
0
  6
Continuous
 62
     7
100
AcDbLine
 10
51.79999999999998
 20
122.0
 30
0.0
 11
56.5
 21
122.0
 31
0.0
  0
ARC
  5
6FB9
330
A
100
AcDbEntity
  8
0
  6
Continuous
 62
     7
100
AcDbCircle
 10
47.75
 20
141.5
 30
0.0
 40
4.5
100
AcDbArc
 50
278.3220410000005
 51
59.9999999999995
  0
ARC
  5
6FBA
330
A
100
AcDbEntity
  8
0
  6
Continuous
 62
     7
100
AcDbCircle
 10
47.75
 20
141.5
 30
0.0
 40
4.0
100
AcDbArc
 50
285.9424119999999
 51
55.771133999999
  0
ARC
  5
6FBB
330
A
100
AcDbEntity
  8
0
  6
Continuous
 62
     7
100
AcDbCircle
 10
49.79999999999998
 20
133.5
 30
0.0
 40
1.5
100
AcDbArc
 50
0.0
 51
90.0
  0
LINE
  5
6FBC
330
A
100
AcDbEntity
  8
0
  6
Continuous
 62
     7
100
AcDbLine
 10
49.79999999999998
 20
135.0
 30
0.0
 11
45.59807699999999
 21
135.0
 31
0.0
  0
LINE
  5
6FBD
330
A
100
AcDbEntity
  8
0
  6
Continuous
 62
     7
100
AcDbLine
 10
43.0
 20
164.0
 30
0.0
 11
49.79999999999998
 21
164.0
 31
0.0
  0
ARC
  5
6FBE
330
A
100
AcDbEntity
  8
0
  6
Continuous
 62
     7
100
AcDbCircle
 10
49.79999999999998
 20
165.5
 30
0.0
 40
1.5
100
AcDbArc
 50
270.0
 51
0.0
  0
LINE
  5
6FBF
330
A
100
AcDbEntity
  8
0
  6
Continuous
 62
     7
100
AcDbLine
 10
0.782576000000006
 20
12.45000000000004
 30
0.0
 11
0.782576000000006
 21
16.45000000000004
 31
0.0
  0
LINE
  5
6FC0
330
A
100
AcDbEntity
  8
0
  6
Continuous
 62
     7
100
AcDbLine
 10
0.782576000000006
 20
61.54999999999972
 30
0.0
 11
0.782576000000006
 21
65.54999999999973
 31
0.0
  0
LINE
  5
6FC1
330
A
100
AcDbEntity
  8
0
  6
Continuous
 62
     7
100
AcDbLine
 10
0.782576000000006
 20
65.54999999999973
 30
0.0
 11
0.782576000000006
 21
65.64999999999997
 31
0.0
  0
LINE
  5
6FC2
330
A
100
AcDbEntity
  8
0
  6
Continuous
 62
     7
100
AcDbLine
 10
0.782576000000006
 20
12.35000000000002
 30
0.0
 11
0.782576000000006
 21
12.45000000000004
 31
0.0
  0
LINE
  5
6FC3
330
A
100
AcDbEntity
  8
0
  6
Continuous
 62
     7
100
AcDbLine
 10
26.0
 20
8.5
 30
0.0
 11
7.0
 21
8.5
 31
0.0
  0
LINE
  5
6FC4
330
A
100
AcDbEntity
  8
0
  6
Continuous
 62
     7
100
AcDbLine
 10
7.0
 20
69.5
 30
0.0
 11
26.0
 21
69.5
 31
0.0
  0
LINE
  5
6FC5
330
A
100
AcDbEntity
  8
0
  6
Continuous
 62
     9
100
AcDbLine
 10
-15.49701399999999
 20
93.0
 30
0.0
 11
-15.49701399999999
 21
-15.0
 31
0.0
  0
LINE
  5
6FC6
330
A
100
AcDbEntity
  8
0
  6
Continuous
 62
     7
100
AcDbLine
 10
-12.9
 20
-15.0
 30
0.0
 11
-12.9
 21
93.0
 31
0.0
  0
LINE
  5
6FC7
330
A
100
AcDbEntity
  8
0
  6
Continuous
 62
     7
100
AcDbLine
 10
-15.49701399999999
 20
93.0
 30
0.0
 11
-12.9
 21
93.0
 31
0.0
  0
LINE
  5
6FC8
330
A
100
AcDbEntity
  8
0
  6
Continuous
 62
     7
100
AcDbLine
 10
-12.9
 20
-15.0
 30
0.0
 11
-15.49701399999999
 21
-15.0
 31
0.0
  0
LINE
  5
6FC9
330
A
100
AcDbEntity
  8
0
  6
Continuous
 62
     7
100
AcDbLine
 10
31.17084399999999
 20
69.54999999999973
 30
0.0
 11
1.5
 21
69.54999999999973
 31
0.0
  0
ARC
  5
6FCA
330
A
100
AcDbEntity
  8
0
  6
Continuous
 62
     7
100
AcDbCircle
 10
1.5
 20
68.04999999999973
 30
0.0
 40
1.5
100
AcDbArc
 50
90.0
 51
180.0
  0
LINE
  5
6FCB
330
A
100
AcDbEntity
  8
0
  6
Continuous
 62
     7
100
AcDbLine
 10
0.0
 20
68.04999999999973
 30
0.0
 11
0.0
 21
9.950000000000043
 31
0.0
  0
ARC
  5
6FCC
330
A
100
AcDbEntity
  8
0
  6
Continuous
 62
     7
100
AcDbCircle
 10
1.5
 20
9.950000000000043
 30
0.0
 40
1.5
100
AcDbArc
 50
180.0
 51
270.0
  0
LINE
  5
6FCD
330
A
100
AcDbEntity
  8
0
  6
Continuous
 62
     7
100
AcDbLine
 10
1.5
 20
8.450000000000045
 30
0.0
 11
31.17084399999999
 21
8.450000000000045
 31
0.0
  0
ARC
  5
6FCE
330
A
100
AcDbEntity
  8
0
  6
Continuous
 62
     7
100
AcDbCircle
 10
32.0
 20
9.700000000000043
 30
0.0
 40
1.5
100
AcDbArc
 50
236.4426900000006
 51
270.0
  0
LINE
  5
6FCF
330
A
100
AcDbEntity
  8
0
  6
Continuous
 62
     7
100
AcDbLine
 10
32.0
 20
8.200000000000045
 30
0.0
 11
32.0
 21
7.999999999999886
 31
0.0
  0
LINE
  5
6FD0
330
A
100
AcDbEntity
  8
0
  6
Continuous
 62
     7
100
AcDbLine
 10
32.0
 20
7.999999999999886
 30
0.0
 11
43.0
 21
7.999999999999886
 31
0.0
  0
LINE
  5
6FD1
330
A
100
AcDbEntity
  8
0
  6
Continuous
 62
     9
100
AcDbLine
 10
43.0
 20
-15.0
 30
0.0
 11
43.0
 21
7.999999999999886
 31
0.0
  0
LINE
  5
6FD2
330
A
100
AcDbEntity
  8
0
  6
Continuous
 62
     9
100
AcDbLine
 10
43.0
 20
70.0
 30
0.0
 11
43.0
 21
93.0
 31
0.0
  0
LINE
  5
6FD3
330
A
100
AcDbEntity
  8
0
  6
Continuous
 62
     7
100
AcDbLine
 10
43.0
 20
70.0
 30
0.0
 11
32.0
 21
70.0
 31
0.0
  0
LINE
  5
6FD4
330
A
100
AcDbEntity
  8
0
  6
Continuous
 62
     7
100
AcDbLine
 10
32.0
 20
70.0
 30
0.0
 11
32.0
 21
69.79999999999972
 31
0.0
  0
ARC
  5
6FD5
330
A
100
AcDbEntity
  8
0
  6
Continuous
 62
     7
100
AcDbCircle
 10
32.0
 20
68.29999999999973
 30
0.0
 40
1.5
100
AcDbArc
 50
90.0
 51
123.5573099999994
  0
LINE
  5
6FD6
330
A
100
AcDbEntity
  8
0
  6
Continuous
 62
     7
100
AcDbLine
 10
-12.9
 20
93.0
 30
0.0
 11
43.0
 21
93.0
 31
0.0
  0
LINE
  5
6FD7
330
A
100
AcDbEntity
  8
0
  6
Continuous
 62
     7
100
AcDbLine
 10
43.0
 20
-15.0
 30
0.0
 11
-12.9
 21
-15.0
 31
0.0
  0
LINE
  5
6FD8
330
A
100
AcDbEntity
  8
0
  6
Continuous
 62
     7
100
AcDbLine
 10
50.0
 20
7.999999999999886
 30
0.0
 11
50.0
 21
-15.0
 31
0.0
  0
LINE
  5
6FD9
330
A
100
AcDbEntity
  8
0
  6
Continuous
 62
     7
100
AcDbLine
 10
50.0
 20
7.999999999999886
 30
0.0
 11
43.0
 21
7.999999999999886
 31
0.0
  0
LINE
  5
6FDA
330
A
100
AcDbEntity
  8
0
  6
Continuous
 62
     7
100
AcDbLine
 10
50.0
 20
-15.0
 30
0.0
 11
43.0
 21
-15.0
 31
0.0
  0
LINE
  5
6FDB
330
A
100
AcDbEntity
  8
0
  6
Continuous
 62
     7
100
AcDbLine
 10
50.0
 20
93.0
 30
0.0
 11
50.0
 21
70.0
 31
0.0
  0
LINE
  5
6FDC
330
A
100
AcDbEntity
  8
0
  6
Continuous
 62
     7
100
AcDbLine
 10
43.0
 20
70.0
 30
0.0
 11
50.0
 21
70.0
 31
0.0
  0
LINE
  5
6FDD
330
A
100
AcDbEntity
  8
0
  6
Continuous
 62
     7
100
AcDbLine
 10
43.0
 20
93.0
 30
0.0
 11
50.0
 21
93.0
 31
0.0
  0
LINE
  5
6FDE
330
A
100
AcDbEntity
  8
0
  6
Continuous
 62
     9
100
AcDbLine
 10
-22.30149900000001
 20
93.0
 30
0.0
 11
-22.30149900000001
 21
-15.0
 31
0.0
  0
LINE
  5
6FDF
330
A
100
AcDbEntity
  8
0
  6
Continuous
 62
     7
100
AcDbLine
 10
-22.30149900000001
 20
93.0
 30
0.0
 11
-15.49701399999999
 21
93.0
 31
0.0
  0
LINE
  5
6FE0
330
A
100
AcDbEntity
  8
0
  6
Continuous
 62
     7
100
AcDbLine
 10
-15.49701399999999
 20
-15.0
 30
0.0
 11
-22.30149900000001
 21
-15.0
 31
0.0
  0
LINE
  5
6FE1
330
A
100
AcDbEntity
  8
0
  6
Continuous
 62
     9
100
AcDbLine
 10
-22.85564100000001
 20
93.0
 30
0.0
 11
-22.85564100000001
 21
-15.0
 31
0.0
  0
LINE
  5
6FE2
330
A
100
AcDbEntity
  8
0
  6
Continuous
 62
     7
100
AcDbLine
 10
-22.85564100000001
 20
93.0
 30
0.0
 11
-22.30149900000001
 21
93.0
 31
0.0
  0
LINE
  5
6FE3
330
A
100
AcDbEntity
  8
0
  6
Continuous
 62
     7
100
AcDbLine
 10
-22.30149900000001
 20
-15.0
 30
0.0
 11
-22.85564100000001
 21
-15.0
 31
0.0
  0
LINE
  5
6FE4
330
A
100
AcDbEntity
  8
0
  6
Continuous
 62
     7
100
AcDbLine
 10
-23.00000000000002
 20
93.0
 30
0.0
 11
-23.00000000000002
 21
-15.0
 31
0.0
  0
LINE
  5
6FE5
330
A
100
AcDbEntity
  8
0
  6
Continuous
 62
     7
100
AcDbLine
 10
-23.00000000000002
 20
93.0
 30
0.0
 11
-22.85564100000001
 21
93.0
 31
0.0
  0
LINE
  5
6FE6
330
A
100
AcDbEntity
  8
0
  6
Continuous
 62
     7
100
AcDbLine
 10
-22.85564100000001
 20
-15.0
 30
0.0
 11
-23.00000000000002
 21
-15.0
 31
0.0
  0
LINE
  5
6FE7
330
A
100
AcDbEntity
  8
0
  6
Continuous
 62
     7
100
AcDbLine
 10
20.5
 20
8.5
 30
0.0
 11
20.5
 21
8.450000000000045
 31
0.0
  0
LINE
  5
6FE8
330
A
100
AcDbEntity
  8
0
  6
Continuous
 62
     7
100
AcDbLine
 10
12.5
 20
8.5
 30
0.0
 11
12.5
 21
8.450000000000045
 31
0.0
  0
LINE
  5
6FE9
330
A
100
AcDbEntity
  8
0
  6
Continuous
 62
     7
100
AcDbLine
 10
20.5
 20
69.5
 30
0.0
 11
20.5
 21
69.54999999999973
 31
0.0
  0
LINE
  5
6FEA
330
A
100
AcDbEntity
  8
0
  6
Continuous
 62
     7
100
AcDbLine
 10
12.5
 20
69.5
 30
0.0
 11
12.5
 21
69.54999999999973
 31
0.0
  0
LINE
  5
6FEB
330
A
100
AcDbEntity
  8
0
  6
Continuous
 62
     9
100
AcDbLine
 10
51.79999999999998
 20
93.0
 30
0.0
 11
51.79999999999998
 21
-15.0
 31
0.0
  0
LINE
  5
6FEC
330
A
100
AcDbEntity
  8
0
  6
Continuous
 62
     7
100
AcDbLine
 10
56.5
 20
-15.0
 30
0.0
 11
56.5
 21
93.0
 31
0.0
  0
LINE
  5
6FED
330
A
100
AcDbEntity
  8
0
  6
Continuous
 62
     7
100
AcDbLine
 10
51.79999999999998
 20
93.0
 30
0.0
 11
56.5
 21
93.0
 31
0.0
  0
LINE
  5
6FEE
330
A
100
AcDbEntity
  8
0
  6
Continuous
 62
     7
100
AcDbLine
 10
51.79999999999998
 20
-15.0
 30
0.0
 11
56.5
 21
-15.0
 31
0.0
  0
LINE
  5
6FEF
330
A
100
AcDbEntity
  8
0
  6
Continuous
 62
     7
100
AcDbLine
 10
51.29999999999999
 20
-15.0
 30
0.0
 11
51.29999999999999
 21
93.0
 31
0.0
  0
LINE
  5
6FF0
330
A
100
AcDbEntity
  8
0
  6
Continuous
 62
     7
100
AcDbLine
 10
51.29999999999999
 20
93.0
 30
0.0
 11
51.79999999999998
 21
93.0
 31
0.0
  0
LINE
  5
6FF1
330
A
100
AcDbEntity
  8
0
  6
Continuous
 62
     7
100
AcDbLine
 10
51.79999999999998
 20
-15.0
 30
0.0
 11
51.29999999999999
 21
-15.0
 31
0.0
  0
LINE
  5
6FF2
330
A
100
AcDbEntity
  8
0
  6
Continuous
 62
     9
100
AcDbLine
 10
49.79999999999998
 20
8.999999999999772
 30
0.0
 11
49.79999999999998
 21
69.0
 31
0.0
  0
LINE
  5
6FF3
330
A
100
AcDbEntity
  8
0
  6
Continuous
 62
     7
100
AcDbLine
 10
49.79999999999998
 20
8.999999999999772
 30
0.0
 11
51.29999999999999
 21
8.999999999999772
 31
0.0
  0
LINE
  5
6FF4
330
A
100
AcDbEntity
  8
0
  6
Continuous
 62
     7
100
AcDbLine
 10
51.29999999999999
 20
69.0
 30
0.0
 11
49.79999999999998
 21
69.0
 31
0.0
  0
LINE
  5
6FF5
330
A
100
AcDbEntity
  8
0
  6
Continuous
 62
     9
100
AcDbLine
 10
16.5
 20
8.999999999999772
 30
0.0
 11
16.5
 21
69.0
 31
0.0
  0
LINE
  5
6FF6
330
A
100
AcDbEntity
  8
0
  6
Continuous
 62
     7
100
AcDbLine
 10
16.5
 20
8.999999999999772
 30
0.0
 11
49.79999999999998
 21
8.999999999999772
 31
0.0
  0
LINE
  5
6FF7
330
A
100
AcDbEntity
  8
0
  6
Continuous
 62
     7
100
AcDbLine
 10
16.5
 20
69.0
 30
0.0
 11
49.79999999999998
 21
69.0
 31
0.0
  0
LINE
  5
6FF8
330
A
100
AcDbEntity
  8
0
  6
Continuous
 62
     7
100
AcDbLine
 10
2.0
 20
8.999999999999772
 30
0.0
 11
16.5
 21
8.999999999999772
 31
0.0
  0
LINE
  5
6FF9
330
A
100
AcDbEntity
  8
0
  6
Continuous
 62
     7
100
AcDbLine
 10
2.0
 20
69.0
 30
0.0
 11
16.5
 21
69.0
 31
0.0
  0
LINE
  5
6FFA
330
A
100
AcDbEntity
  8
0
  6
Continuous
 62
     7
100
AcDbLine
 10
0.0
 20
12.45000000000004
 30
0.0
 11
0.782576000000006
 21
12.45000000000004
 31
0.0
  0
LINE
  5
6FFB
330
A
100
AcDbEntity
  8
0
  6
Continuous
 62
     7
100
AcDbLine
 10
0.782576000000006
 20
16.45000000000004
 30
0.0
 11
0.0
 21
16.45000000000004
 31
0.0
  0
ARC
  5
6FFC
330
A
100
AcDbEntity
  8
0
  6
Continuous
 62
     7
100
AcDbCircle
 10
-3.800000000000011
 20
14.45000000000004
 30
0.0
 40
5.0
100
AcDbArc
 50
0.0
 51
23.57817799999873
  0
ARC
  5
6FFD
330
A
100
AcDbEntity
  8
0
  6
Continuous
 62
     7
100
AcDbCircle
 10
-3.800000000000011
 20
14.45000000000004
 30
0.0
 40
5.0
100
AcDbArc
 50
336.4218220000013
 51
0.0
  0
LINE
  5
6FFE
330
A
100
AcDbEntity
  8
0
  6
Continuous
 62
     7
100
AcDbLine
 10
0.0
 20
61.54999999999972
 30
0.0
 11
0.782576000000006
 21
61.54999999999972
 31
0.0
  0
LINE
  5
6FFF
330
A
100
AcDbEntity
  8
0
  6
Continuous
 62
     7
100
AcDbLine
 10
0.782576000000006
 20
65.54999999999973
 30
0.0
 11
0.0
 21
65.54999999999973
 31
0.0
  0
ARC
  5
7000
330
A
100
AcDbEntity
  8
0
  6
Continuous
 62
     7
100
AcDbCircle
 10
-3.800000000000011
 20
63.54999999999972
 30
0.0
 40
5.0
100
AcDbArc
 50
0.0
 51
23.57817799999873
  0
ARC
  5
7001
330
A
100
AcDbEntity
  8
0
  6
Continuous
 62
     7
100
AcDbCircle
 10
-3.800000000000011
 20
63.54999999999972
 30
0.0
 40
5.0
100
AcDbArc
 50
336.4218220000013
 51
0.0
  0
LINE
  5
7002
330
A
100
AcDbEntity
  8
0
  6
Continuous
 62
     7
100
AcDbLine
 10
0.782576000000006
 20
65.64999999999997
 30
0.0
 11
0.0
 21
65.64999999999997
 31
0.0
  0
ARC
  5
7003
330
A
100
AcDbEntity
  8
0
  6
Continuous
 62
     7
100
AcDbCircle
 10
-3.800000000000011
 20
63.64999999999975
 30
0.0
 40
5.0
100
AcDbArc
 50
0.0
 51
23.57817799999873
  0
ARC
  5
7004
330
A
100
AcDbEntity
  8
0
  6
Continuous
 62
     7
100
AcDbCircle
 10
-3.800000000000011
 20
63.64999999999975
 30
0.0
 40
5.0
100
AcDbArc
 50
359.4268410000019
 51
0.0
  0
LINE
  5
7005
330
A
100
AcDbEntity
  8
0
  6
Continuous
 62
     7
100
AcDbLine
 10
0.0
 20
12.35000000000002
 30
0.0
 11
0.782576000000006
 21
12.35000000000002
 31
0.0
  0
ARC
  5
7006
330
A
100
AcDbEntity
  8
0
  6
Continuous
 62
     7
100
AcDbCircle
 10
-3.800000000000011
 20
14.35000000000002
 30
0.0
 40
5.0
100
AcDbArc
 50
0.0
 51
0.5729679999993823
  0
ARC
  5
7007
330
A
100
AcDbEntity
  8
0
  6
Continuous
 62
     7
100
AcDbCircle
 10
-3.800000000000011
 20
14.35000000000002
 30
0.0
 40
5.0
100
AcDbArc
 50
336.4218220000013
 51
0.0
  0
LINE
  5
7008
330
A
100
AcDbEntity
  8
0
  6
Continuous
 62
     7
100
AcDbLine
 10
5.626261999999996
 20
8.999999999999772
 30
0.0
 11
7.0
 21
8.5
 31
0.0
  0
LINE
  5
7009
330
A
100
AcDbEntity
  8
0
  6
Continuous
 62
     7
100
AcDbLine
 10
26.0
 20
8.5
 30
0.0
 11
27.373739
 21
8.999999999999772
 31
0.0
  0
LINE
  5
700A
330
A
100
AcDbEntity
  8
0
  6
Continuous
 62
     7
100
AcDbLine
 10
27.373739
 20
69.0
 30
0.0
 11
26.0
 21
69.5
 31
0.0
  0
LINE
  5
700B
330
A
100
AcDbEntity
  8
0
  6
Continuous
 62
     7
100
AcDbLine
 10
7.0
 20
69.5
 30
0.0
 11
5.626261999999996
 21
69.0
 31
0.0
  0
LINE
  5
700C
330
A
100
AcDbEntity
  8
0
  6
Continuous
 62
     7
100
AcDbLine
 10
2.0
 20
69.0
 30
0.0
 11
2.0
 21
8.999999999999772
 31
0.0
  0
TEXT
  5
72C4
330
A
100
AcDbEntity
  8
0
  6
Continuous
 62
     7
370
     0
100
AcDbText
 10
75.69222413616401
 20
147.0073206442166
 30
0.0
 40
10.0
  1
8010
100
AcDbText
  0
ARC
  5
731E
330
A
100
AcDbEntity
  8
0
  6
CENTER
 62
     1
100
AcDbCircle
 10
0.0
 20
78.0
 30
0.0
 40
11.0
100
AcDbArc
 50
29.99999999999984
 51
180.0
  0
ARC
  5
731F
330
A
100
AcDbEntity
  8
0
  6
CENTER
 62
     1
100
AcDbCircle
 10
0.0
 20
0.0
 30
0.0
 40
11.0
100
AcDbArc
 50
180.0
 51
330.0
  0
LINE
  5
7320
330
A
100
AcDbEntity
  8
0
  6
CENTER
 62
     1
100
AcDbLine
 10
-11.0
 20
0.0
 30
0.0
 11
-11.0
 21
78.0
 31
0.0
  0
LINE
  5
7321
330
A
100
AcDbEntity
  8
0
  6
CENTER
 62
     1
100
AcDbLine
 10
50.0
 20
81.0
 30
0.0
 11
13.85640646055101
 21
81.00000000000001
 31
0.0
  0
LINE
  5
7322
330
A
100
AcDbEntity
  8
0
  6
CENTER
 62
     1
100
AcDbLine
 10
50.0
 20
-3.0
 30
0.0
 11
13.85640646055101
 21
-2.999999999999998
 31
0.0
  0
LINE
  5
7328
330
A
100
AcDbEntity
  8
0
  6
CENTER
 62
     1
100
AcDbLine
 10
-15.00000000000001
 20
78.0
 30
0.0
 11
14.99999999999999
 21
78.0
 31
0.0
  0
LINE
  5
7329
330
A
100
AcDbEntity
  8
0
  6
CENTER
 62
     1
100
AcDbLine
 10
-0.0000000000000071
 20
63.0
 30
0.0
 11
-0.0000000000000071
 21
93.0
 31
0.0
  0
LINE
  5
732D
330
A
100
AcDbEntity
  8
0
  6
CENTER
 62
     1
100
AcDbLine
 10
-15.0
 20
0.0
 30
0.0
 11
15.0
 21
0.0
 31
0.0
  0
LINE
  5
732E
330
A
100
AcDbEntity
  8
0
  6
CENTER
 62
     1
100
AcDbLine
 10
0.0
 20
-15.0
 30
0.0
 11
0.0
 21
15.0
 31
0.0
  0
ARC
  5
7332
330
A
100
AcDbEntity
  8
0
  6
CENTER
 62
     1
100
AcDbCircle
 10
13.85640646055102
 20
85.99999999999999
 30
0.0
 40
5.0
100
AcDbArc
 50
210.0
 51
269.9999999999998
  0
ARC
  5
7333
330
A
100
AcDbEntity
  8
0
  6
CENTER
 62
     1
100
AcDbCircle
 10
13.85640646055101
 20
-8.000000000000001
 30
0.0
 40
5.0
100
AcDbArc
 50
90.0
 51
149.9999999999999
  0
ENDSEC
  0
SECTION
  2
OBJECTS
  0
DICTIONARY
  5
19
330
0
100
AcDbDictionary
281
     1
  3
ACAD_COLOR
350
3988
  3
ACAD_GROUP
350
1A
  3
ACAD_LAYOUT
350
1E
  3
ACAD_MATERIAL
350
395E
  3
ACAD_MLEADERSTYLE
350
39AD
  3
ACAD_MLINESTYLE
350
1B
  3
ACAD_PLOTSETTINGS
350
22
  3
ACAD_PLOTSTYLENAME
350
1F
  3
ACAD_SCALELIST
350
398B
  3
ACAD_TABLESTYLE
350
3989
  3
ACAD_VISUALSTYLE
350
3977
  3
ACAD_WIPEOUT_VARS
350
23
  3
ACDB_RECOMPOSE_DATA
350
72EC
  3
AcDbVariableDictionary
350
72CB
  3
ASE_INDEX_DICTIONARY
350
72C6
  3
DWGPROPS
350
73C9
  0
DICTIONARY
  5
72C9
330
14
100
AcDbDictionary
280
     1
281
     1
  3
ADSK_XREC_LAYER_RECONCILED
360
72CA
  0
DICTIONARY
  5
39B7
330
A
100
AcDbDictionary
280
     1
281
     1
  3
ACAD_SORTENTS
360
39B8
  0
DICTIONARY
  5
3988
102
{ACAD_REACTORS
330
19
102
}
330
19
100
AcDbDictionary
281
     1
  0
DICTIONARY
  5
1A
102
{ACAD_REACTORS
330
19
102
}
330
19
100
AcDbDictionary
281
     1
  0
DICTIONARY
  5
1E
102
{ACAD_REACTORS
330
19
102
}
330
19
100
AcDbDictionary
281
     1
  3
Layout1
350
21
  3
Model
350
20
  0
DICTIONARY
  5
395E
102
{ACAD_REACTORS
330
19
102
}
330
19
100
AcDbDictionary
281
     1
  3
ByBlock
350
3967
  3
ByLayer
350
395F
  3
Global
350
396F
  0
DICTIONARY
  5
39AD
102
{ACAD_REACTORS
330
19
102
}
330
19
100
AcDbDictionary
281
     1
  3
Standard
350
39AE
  0
DICTIONARY
  5
1B
102
{ACAD_REACTORS
330
19
102
}
330
19
100
AcDbDictionary
281
     1
  3
Standard
350
1C
  0
DICTIONARY
  5
22
102
{ACAD_REACTORS
330
19
102
}
330
19
100
AcDbDictionary
281
     1
  0
ACDBDICTIONARYWDFLT
  5
1F
102
{ACAD_REACTORS
330
19
102
}
330
19
100
AcDbDictionary
281
     1
  3
Normal
350
1D
100
AcDbDictionaryWithDefault
340
1D
  0
DICTIONARY
  5
398B
102
{ACAD_REACTORS
330
19
102
}
330
19
100
AcDbDictionary
281
     1
  3
A0
350
398C
  3
A1
350
398D
  3
A2
350
398E
  3
A3
350
398F
  3
A4
350
3990
  3
A5
350
3991
  3
A6
350
3992
  3
A7
350
3993
  3
A8
350
3994
  3
A9
350
3995
  3
B0
350
3996
  3
B1
350
3997
  3
B2
350
3998
  3
B3
350
3999
  3
B4
350
399A
  3
B5
350
399B
  3
B6
350
399C
  3
B7
350
399D
  3
B8
350
399E
  3
B9
350
399F
  3
C0
350
39A0
  3
C1
350
39A1
  3
C2
350
39A2
  3
C3
350
39A3
  3
C4
350
39A4
  3
C5
350
39A5
  3
C6
350
39A6
  3
C7
350
39A7
  3
C8
350
39A8
  3
C9
350
39A9
  3
D0
350
39AA
  3
D1
350
39AB
  3
D2
350
39AC
  0
DICTIONARY
  5
3989
102
{ACAD_REACTORS
330
19
102
}
330
19
100
AcDbDictionary
281
     1
  3
Standard
350
398A
  0
DICTIONARY
  5
3977
102
{ACAD_REACTORS
330
19
102
}
330
19
100
AcDbDictionary
281
     1
  3
2dWireframe
350
397D
  3
3D Hidden
350
397F
  3
3dWireframe
350
397E
  3
Basic
350
397C
  3
Brighten
350
3983
  3
ColorChange
350
3987
  3
Conceptual
350
3980
  3
Dim
350
3982
  3
Facepattern
350
3986
  3
Flat
350
3978
  3
FlatWithEdges
350
3979
  3
Gouraud
350
397A
  3
GouraudWithEdges
350
397B
  3
Linepattern
350
3985
  3
Realistic
350
3981
  3
Thicken
350
3984
  0
WIPEOUTVARIABLES
  5
23
330
19
100
AcDbWipeoutVariables
 70
     1
  0
XRECORD
  5
72EC
102
{ACAD_REACTORS
330
19
102
}
330
19
100
AcDbXrecord
280
     1
 90
        1
330
398A
  0
DICTIONARY
  5
72CB
102
{ACAD_REACTORS
330
19
102
}
330
19
100
AcDbDictionary
281
     1
  3
CANNOSCALE
350
72CE
  3
CMLEADERSTYLE
350
72CD
  3
CTABLESTYLE
350
72CC
  3
DIMASSOC
350
72D1
  3
INDEXCTL
350
72D0
  3
SORTENTS
350
72CF
  0
DICTIONARY
  5
72C6
102
{ACAD_REACTORS
330
19
102
}
330
19
100
AcDbDictionary
281
     1
  3
ASEBlockHierarchyIndexRecord
350
72C8
1001
DCO15
1040
1687090590.691
  0
XRECORD
  5
73C9
102
{ACAD_REACTORS
330
19
102
}
330
19
100
AcDbXrecord
280
     1
  1
DWGPROPS COOKIE
  2

  3

  4

  6

  7

  8
renzo.ceresoli
  9

300
=
301
=
302
=
303
=
304
=
305
=
306
=
307
=
308
=
309
=
 40
0.0412356828703704
 41
2455329.702198484
 42
2455380.471414514
  1

 90
        0
  0
XRECORD
  5
72CA
102
{ACAD_REACTORS
330
72C9
102
}
330
72C9
100
AcDbXrecord
280
     1
290
     1
  0
SORTENTSTABLE
  5
39B8
102
{ACAD_REACTORS
330
39B7
102
}
330
39B7
100
AcDbSortentsTable
330
A
331
6EC8
  5
3A42
331
6E52
  5
3AE8
331
6F07
  5
2D8E
331
6DDC
  5
3A72
331
6F09
  5
2D90
331
6F48
  5
39C0
331
6F87
  5
11CE
331
6FC6
  5
2AA
331
6F11
  5
2D98
331
6F50
  5
39C8
331
6FFD
  5
118B
331
7005
  5
1193
331
6F58
  5
119F
331
6F8F
  5
1F8D
331
6F19
  5
2DA0
331
6FCE
  5
2B2
331
6FD6
  5
2BA
331
6F60
  5
11A7
331
6F97
  5
1F95
331
6F21
  5
3207
331
6FDE
  5
55A
331
6F9F
  5
1F9D
331
6E91
  5
3A0B
331
6ED0
  5
39D2
331
6E1B
  5
3AB1
331
6E5A
  5
3AF0
331
6DE4
  5
3A7A
331
6E99
  5
3A13
331
6ED8
  5
39DA
331
6DEC
  5
3A82
331
6E23
  5
3AB9
331
6E62
  5
3AF8
331
6E6A
  5
39E4
331
6EA1
  5
3A1B
331
6DB5
  5
3A4B
331
6DF4
  5
3A8A
331
2A6
  5
3B01
331
6E2B
  5
3AC1
331
6EE0
  5
1FC2
331
6EE8
  5
1FCA
331
6E33
  5
3AC9
331
6E72
  5
39EC
331
6DBD
  5
3A53
331
6DFC
  5
3A92
331
6EA9
  5
3A23
331
6F29
  5
320F
331
6F68
  5
11AF
331
6FA7
  5
1FA5
331
6FE6
  5
562
331
6F31
  5
3217
331
6F70
  5
11B7
331
732D
  5
7332
331
6F78
  5
11BF
331
6FAF
  5
1FB2
331
6F39
  5
3958
331
6FEE
  5
56A
331
6FB7
  5
1FBA
331
6F41
  5
39B9
331
6FF6
  5
1184
331
6FBF
  5
2A3
331
6EF0
  5
2404
331
6E3B
  5
3AD1
331
6E7A
  5
39F4
331
6DC5
  5
3A5B
331
6E04
  5
3A9A
331
6EB1
  5
3A2B
331
6EB9
  5
3A33
331
6EF8
  5
240C
331
6E0C
  5
3AA2
331
6E43
  5
3AD9
331
2AE
  5
3B09
331
6DCD
  5
3A63
331
6E82
  5
39FC
331
6E8A
  5
3A04
331
6EC1
  5
3A3B
331
6DD5
  5
3A6B
331
6E14
  5
3AAA
331
2B6
  5
3B11
331
6E4B
  5
3AE1
331
6F00
  5
291E
331
6EC9
  5
3A43
331
6DDD
  5
3A73
331
6E53
  5
3AE9
331
6F49
  5
39C1
331
6F80
  5
11C7
331
6F0A
  5
2D91
331
6FC7
  5
2AB
331
6FFE
  5
118C
331
6F12
  5
2D99
331
6F51
  5
39C9
331
6F88
  5
11CF
331
6FCF
  5
2B3
331
7006
  5
1194
331
6F1A
  5
2DA1
331
6F59
  5
11A0
331
6F90
  5
1F8E
331
6F98
  5
1F96
331
6FD7
  5
553
331
6F22
  5
3208
331
6F61
  5
11A8
331
731E
  5
7322
331
6FDF
  5
55B
331
6E5B
  5
3AF1
331
6E92
  5
3A0C
331
6DE5
  5
3A7B
331
6E1C
  5
3AB2
331
6ED1
  5
39D3
331
6ED9
  5
39DB
331
6E24
  5
3ABA
331
6E63
  5
3AF9
331
6DAE
  5
3A44
331
6DED
  5
3A83
331
6E9A
  5
3A14
331
6EA2
  5
3A1C
331
6EE1
  5
1FC3
331
6E2C
  5
3AC2
331
6E6B
  5
39E5
331
2A7
  5
3B02
331
6DB6
  5
3A4C
331
6DF5
  5
3A8B
331
6EAA
  5
3A24
331
6EE9
  5
1FCB
331
6DFD
  5
3A93
331
6E34
  5
3ACA
331
6DBE
  5
3A54
331
6E73
  5
39ED
331
6F69
  5
11B0
331
6FA0
  5
1F9E
331
6F2A
  5
3210
331
6FE7
  5
563
331
6F71
  5
11B8
331
6FA8
  5
1FA6
331
6F32
  5
3218
331
6FEF
  5
56B
331
732E
  5
7333
331
6F3A
  5
3959
331
6F79
  5
11C0
331
6FB0
  5
1FB3
331
6FB8
  5
1FBB
331
6F42
  5
39BA
331
6FF7
  5
1185
331
6E7B
  5
39F5
331
6EB2
  5
3A2C
331
6DC6
  5
3A5C
331
6E05
  5
3A9B
331
6E3C
  5
3AD2
331
6EF1
  5
2405
331
6EF9
  5
240D
331
6E44
  5
3ADA
331
6E83
  5
39FD
331
6DCE
  5
3A64
331
6E0D
  5
3AA3
331
6EBA
  5
3A34
331
2AF
  5
3B0A
331
6F01
  5
291F
331
6E4C
  5
3AE2
331
6E8B
  5
3A05
331
2B7
  5
3B12
331
6DD6
  5
3A6C
331
6E15
  5
3AAB
331
6EC2
  5
3A3C
331
6ECA
  5
39CC
331
6E54
  5
3AEA
331
6DDE
  5
3A74
331
6F81
  5
11C8
331
6FC0
  5
2A4
331
6F0B
  5
2D92
331
6F4A
  5
39C2
331
6F89
  5
11D0
331
6FC8
  5
2AC
331
6F13
  5
2D9A
331
6F52
  5
39CA
331
6FFF
  5
118D
331
7007
  5
1195
331
6F5A
  5
11A1
331
6F91
  5
1F8F
331
6F1B
  5
2DA2
331
6FD0
  5
2B4
331
6FD8
  5
554
331
6F23
  5
3209
331
6F62
  5
11A9
331
6F99
  5
1F97
331
731F
  5
7327
331
6E93
  5
3A0D
331
6ED2
  5
39D4
331
6DE6
  5
3A7C
331
6E1D
  5
3AB3
331
6E5C
  5
3AF2
331
6E9B
  5
3A15
331
6EDA
  5
39DC
331
6DEE
  5
3A84
331
6E25
  5
3ABB
331
6DAF
  5
3A45
331
6E64
  5
3AFA
331
6E6C
  5
39E6
331
6EA3
  5
3A1D
331
6DB7
  5
3A4D
331
6DF6
  5
3A8C
331
6E2D
  5
3AC3
331
6EE2
  5
1FC4
331
6EEA
  5
1FCC
331
6E35
  5
3ACB
331
6E74
  5
39EE
331
6DBF
  5
3A55
331
6DFE
  5
3A94
331
6EAB
  5
3A25
331
6FE0
  5
55C
331
6F2B
  5
3211
331
6F6A
  5
11B1
331
6FA1
  5
1F9F
331
6FA9
  5
1FA7
331
6FE8
  5
564
331
6F33
  5
3219
331
6F72
  5
11B9
331
6F7A
  5
11C1
331
6FB1
  5
1FB4
331
6F3B
  5
395A
331
6FF0
  5
96C
331
6FB9
  5
1FBC
331
6F43
  5
39BB
331
6EB3
  5
3A2D
331
6EF2
  5
2406
331
6E3D
  5
3AD3
331
6E7C
  5
39F6
331
2A8
  5
3B03
331
6DC7
  5
3A5D
331
6E06
  5
3A9C
331
6EBB
  5
3A35
331
6EFA
  5
240E
331
6E0E
  5
3AA4
331
6E45
  5
3ADB
331
2B0
  5
3B0B
331
6DCF
  5
3A65
331
6E84
  5
39FE
331
6E8C
  5
3A06
331
6EC3
  5
3A3D
331
6DD7
  5
3A6D
331
6E16
  5
3AAC
331
6E4D
  5
3AE3
331
6F02
  5
2920
331
6E55
  5
3AEB
331
6DDF
  5
3A75
331
6ECB
  5
39CD
331
6FF8
  5
1186
331
6F4B
  5
39C3
331
6F82
  5
11C9
331
6F0C
  5
2D93
331
6FC1
  5
2A5
331
6FC9
  5
2AD
331
7000
  5
118E
331
6F14
  5
2D9B
331
6F53
  5
39CB
331
6F8A
  5
1F88
331
6F92
  5
1F90
331
6FD1
  5
2B5
331
6F1C
  5
2DA3
331
6F5B
  5
11A2
331
7008
  5
1196
331
6F9A
  5
1F98
331
6FD9
  5
555
331
6F24
  5
320A
331
6F63
  5
11AA
331
2B8
  5
3B13
331
6E5D
  5
3AF3
331
6E94
  5
3A0E
331
6DE7
  5
3A7D
331
6E1E
  5
3AB4
331
6ED3
  5
39D5
331
6EDB
  5
39DD
331
6E26
  5
3ABC
331
6E65
  5
3AFB
331
6DB0
  5
3A46
331
6DEF
  5
3A85
331
6E9C
  5
3A16
331
6EA4
  5
3A1E
331
6EE3
  5
1FC5
331
6DF7
  5
3A8D
331
6E2E
  5
3AC4
331
6DB8
  5
3A4E
331
6E6D
  5
39E7
331
6EAC
  5
3A26
331
6EEB
  5
1FCD
331
6DFF
  5
3A95
331
6E36
  5
3ACC
331
6E75
  5
39EF
331
7320
  5
7329
331
6F6B
  5
11B2
331
6FA2
  5
1FA0
331
6F2C
  5
3212
331
6FE1
  5
55D
331
6FE9
  5
565
331
7328
  5
732D
331
6F34
  5
3734
331
6F73
  5
11BA
331
6FAA
  5
1FAD
331
6FF1
  5
96D
331
6F3C
  5
395B
331
6F7B
  5
11C2
331
6FB2
  5
1FB5
331
6FBA
  5
1FBD
331
6F44
  5
39BC
331
6DC0
  5
3A56
331
6E7D
  5
39F7
331
6EB4
  5
3A2E
331
6DC8
  5
3A5E
331
6E07
  5
3A9D
331
2A9
  5
3B04
331
6E3E
  5
3AD4
331
6EF3
  5
2407
331
6EFB
  5
240F
331
6E46
  5
3ADC
331
6E85
  5
39FF
331
2B1
  5
3B0C
331
6DD0
  5
3A66
331
6E0F
  5
3AA5
331
6EBC
  5
3A36
331
6EC4
  5
3A3E
331
6F03
  5
2921
331
6E4E
  5
3AE4
331
6E8D
  5
3A07
331
6DD8
  5
3A6E
331
6E17
  5
3AAD
331
6ECC
  5
39CE
331
6E56
  5
3AEC
331
6F83
  5
11CA
331
6FC2
  5
2A6
331
6F0D
  5
2D94
331
6F4C
  5
39C4
331
6FF9
  5
1187
331
7001
  5
118F
331
6F8B
  5
1F89
331
6FCA
  5
2AE
331
6F15
  5
2D9C
331
6F54
  5
119B
331
7009
  5
1197
331
6F5C
  5
11A3
331
6F93
  5
1F91
331
6F1D
  5
2DA4
331
6FD2
  5
2B6
331
6FDA
  5
556
331
6F25
  5
320B
331
6F64
  5
11AB
331
6F9B
  5
1F99
331
2B9
  5
3B14
331
6DE0
  5
3A76
331
6E95
  5
3A0F
331
6ED4
  5
39D6
331
6DE8
  5
3A7E
331
6E1F
  5
3AB5
331
6E5E
  5
3AF4
331
6E66
  5
3AFC
331
6E9D
  5
3A17
331
6DF0
  5
3A86
331
6E27
  5
3ABD
331
6EDC
  5
39DE
331
6DB1
  5
3A47
331
6E6E
  5
39E8
331
6EA5
  5
3A1F
331
6DB9
  5
3A4F
331
6DF8
  5
3A8E
331
7332
  5
7324
331
6E2F
  5
3AC5
331
6EE4
  5
1FC6
331
6EEC
  5
1FCE
331
6E37
  5
3ACD
331
6E76
  5
39F0
331
6EAD
  5
3A27
331
6FA3
  5
1FA1
331
6FE2
  5
55E
331
6F2D
  5
3213
331
6F6C
  5
11B3
331
7321
  5
731E
331
6FAB
  5
1FAE
331
6FEA
  5
566
331
6F35
  5
3735
331
6F74
  5
11BB
331
7329
  5
732E
331
6F7C
  5
11C3
331
6FB3
  5
1FB6
331
6F3D
  5
39B3
331
6FF2
  5
96E
331
6F45
  5
39BD
331
6FBB
  5
1FBE
331
6DC1
  5
3A57
331
6E00
  5
3A96
331
6EB5
  5
3A2F
331
6EF4
  5
2408
331
6E08
  5
3A9E
331
6E3F
  5
3AD5
331
2AA
  5
3B05
331
6DC9
  5
3A5F
331
6E7E
  5
39F8
331
6EBD
  5
3A37
331
6EFC
  5
2410
331
6E10
  5
3AA6
331
6E47
  5
3ADD
331
2B2
  5
3B0D
331
6DD1
  5
3A67
331
6E86
  5
3A00
331
6E8E
  5
3A08
331
6EC5
  5
3A3F
331
6DD9
  5
3A6F
331
6E4F
  5
3AE5
331
6F04
  5
2D8B
331
6E57
  5
3AED
331
6ECD
  5
39CF
331
6FFA
  5
1188
331
6F4D
  5
39C5
331
6F84
  5
11CB
331
6F0E
  5
2D95
331
6FC3
  5
2A7
331
6FCB
  5
2AF
331
7002
  5
1190
331
6F16
  5
2D9D
331
6F55
  5
119C
331
6F8C
  5
1F8A
331
6F94
  5
1F92
331
6FD3
  5
2B7
331
6F1E
  5
2DA5
331
6F5D
  5
11A4
331
700A
  5
1198
331
6F9C
  5
1F9A
331
6FDB
  5
557
331
6F26
  5
320C
331
6F65
  5
11AC
331
2BA
  5
3B15
331
6DE1
  5
3A77
331
6E18
  5
3AAE
331
6ED5
  5
39D7
331
6E5F
  5
3AF5
331
6E96
  5
3A10
331
6DE9
  5
3A7F
331
6E20
  5
3AB6
331
6EDD
  5
39DF
331
6E28
  5
3ABE
331
6E67
  5
3AFD
331
2A3
  5
3AFE
331
6DB2
  5
3A48
331
6DF1
  5
3A87
331
6E9E
  5
3A18
331
6EA6
  5
3A20
331
6EE5
  5
1FC7
331
6DF9
  5
3A8F
331
6E30
  5
3AC6
331
7333
  5
7328
331
6DBA
  5
3A50
331
6E6F
  5
39E9
331
6E77
  5
39F1
331
6EAE
  5
3A28
331
6EED
  5
1FCF
331
7322
  5
731B
331
6F6D
  5
11B4
331
6FA4
  5
1FA2
331
6F2E
  5
3214
331
6FE3
  5
55F
331
6FEB
  5
567
331
6F36
  5
3736
331
6F75
  5
11BC
331
6FAC
  5
1FAF
331
6FB4
  5
1FB7
331
6FF3
  5
96F
331
6F3E
  5
39B4
331
6F7D
  5
11C4
331
6FBC
  5
1FBF
331
6F46
  5
39BE
331
6E01
  5
3A97
331
6E38
  5
3ACE
331
6DC2
  5
3A58
331
6E7F
  5
39F9
331
6EB6
  5
3A30
331
6DCA
  5
3A60
331
6E09
  5
3A9F
331
2AB
  5
3B06
331
6E40
  5
3AD6
331
6EF5
  5
2409
331
6EFD
  5
2411
331
6E48
  5
3ADE
331
6E87
  5
3A01
331
2B3
  5
3B0E
331
6DD2
  5
3A68
331
6E11
  5
3AA7
331
6EBE
  5
3A38
331
6EC6
  5
3A40
331
6F05
  5
2D8C
331
6E50
  5
3AE6
331
6DDA
  5
3A70
331
6E8F
  5
3A09
331
72C4
  5
72C4
331
6ECE
  5
39D0
331
6F85
  5
11CC
331
6FC4
  5
2A8
331
6F0F
  5
2D96
331
6F4E
  5
39C6
331
6FFB
  5
1189
331
7003
  5
1191
331
6F56
  5
119D
331
6F8D
  5
1F8B
331
6F17
  5
2D9E
331
6FCC
  5
2B0
331
700B
  5
1199
331
6F5E
  5
11A5
331
6F95
  5
1F93
331
6F1F
  5
2DA6
331
6FD4
  5
2B8
331
6FDC
  5
558
331
6F27
  5
320D
331
6F66
  5
11AD
331
6F9D
  5
1F9B
331
6E19
  5
3AAF
331
6E58
  5
3AEE
331
6DE2
  5
3A78
331
6E97
  5
3A11
331
6ED6
  5
39D8
331
6DEA
  5
3A80
331
6E21
  5
3AB7
331
6E60
  5
3AF6
331
6E68
  5
39E2
331
6E9F
  5
3A19
331
6DB3
  5
3A49
331
6DF2
  5
3A88
331
2A4
  5
3AFF
331
6E29
  5
3ABF
331
6EDE
  5
39E0
331
6EE6
  5
1FC8
331
6E70
  5
39EA
331
6EA7
  5
3A21
331
6DBB
  5
3A51
331
6DFA
  5
3A90
331
6E31
  5
3AC7
331
6EEE
  5
1FD0
331
6EAF
  5
3A29
331
6FA5
  5
1FA3
331
6FE4
  5
560
331
6F2F
  5
3215
331
6F6E
  5
11B5
331
6FAD
  5
1FB0
331
6FEC
  5
568
331
6F37
  5
3737
331
6F76
  5
11BD
331
6F7E
  5
11C5
331
6FB5
  5
1FB8
331
6F3F
  5
39B5
331
6FF4
  5
970
331
6F47
  5
39BF
331
6FBD
  5
1FC0
331
6E39
  5
3ACF
331
6E78
  5
39F2
331
6DC3
  5
3A59
331
6E02
  5
3A98
331
6EB7
  5
3A31
331
6EF6
  5
240A
331
6E0A
  5
3AA0
331
6E41
  5
3AD7
331
2AC
  5
3B07
331
6DCB
  5
3A61
331
6E80
  5
39FA
331
6E88
  5
3A02
331
6EBF
  5
3A39
331
6E12
  5
3AA8
331
6E49
  5
3ADF
331
6EFE
  5
2412
331
2B4
  5
3B0F
331
6DD3
  5
3A69
331
6EC7
  5
3A41
331
6DDB
  5
3A71
331
6E51
  5
3AE7
331
6F06
  5
2D8D
331
6ECF
  5
39D1
331
6F08
  5
2D8F
331
6FC5
  5
2A9
331
6FFC
  5
118A
331
6F4F
  5
39C7
331
6F86
  5
11CD
331
6F10
  5
2D97
331
6FCD
  5
2B1
331
7004
  5
1192
331
6F18
  5
2D9F
331
6F57
  5
119E
331
6F8E
  5
1F8C
331
6F96
  5
1F94
331
6FD5
  5
2B9
331
6F20
  5
2DA7
331
6F5F
  5
11A6
331
700C
  5
119A
331
6F67
  5
11AE
331
6F9E
  5
1F9C
331
6FDD
  5
559
331
6E59
  5
3AEF
331
6E90
  5
3A0A
331
6DE3
  5
3A79
331
6E1A
  5
3AB0
331
6ED7
  5
39D9
331
6E22
  5
3AB8
331
6E61
  5
3AF7
331
6DEB
  5
3A81
331
6E98
  5
3A12
331
6EDF
  5
39E1
331
6E2A
  5
3AC0
331
6E69
  5
39E3
331
2A5
  5
3B00
331
6DB4
  5
3A4A
331
6DF3
  5
3A89
331
6EA0
  5
3A1A
331
6EA8
  5
3A22
331
6EE7
  5
1FC9
331
6DFB
  5
3A91
331
6E32
  5
3AC8
331
6DBC
  5
3A52
331
6E71
  5
39EB
331
6EEF
  5
2403
331
6F28
  5
320E
331
6F6F
  5
11B6
331
6FA6
  5
1FA4
331
6F30
  5
3216
331
6FE5
  5
561
331
6FED
  5
569
331
6F38
  5
3738
331
6F77
  5
11BE
331
6FAE
  5
1FB1
331
6FB6
  5
1FB9
331
6FF5
  5
971
331
6F40
  5
39B6
331
6F7F
  5
11C6
331
6FBE
  5
1FC1
331
6E79
  5
39F3
331
6EB0
  5
3A2A
331
6DC4
  5
3A5A
331
6E03
  5
3A99
331
6E3A
  5
3AD0
331
6EF7
  5
240B
331
6E81
  5
39FB
331
6EB8
  5
3A32
331
6DCC
  5
3A62
331
6E0B
  5
3AA1
331
2AD
  5
3B08
331
6E42
  5
3AD8
331
6EFF
  5
291D
331
6E4A
  5
3AE0
331
6E89
  5
3A03
331
2B5
  5
3B10
331
6DD4
  5
3A6A
331
6E13
  5
3AA9
331
6EC0
  5
3A3A
  0
LAYOUT
  5
21
102
{ACAD_XDICTIONARY
360
73CC
102
}
102
{ACAD_REACTORS
330
1E
102
}
330
1E
100
AcDbPlotSettings
  1

  2

  4

  6

 40
0.0
 41
0.0
 42
0.0
 43
0.0
 44
0.0
 45
0.0
 46
0.0
 47
0.0
 48
0.0
 49
0.0
140
0.0
141
0.0
142
1.0
143
1.0
 70
     0
 72
     0
 73
     0
 74
     0
  7

 75
     0
147
1.0
148
0.0
149
0.0
100
AcDbLayout
  1
Layout1
 70
     0
 71
     1
 10
0.0
 20
0.0
 11
12.0
 21
9.0
 12
0.0
 22
0.0
 32
0.0
 14
1.000000000000000E+20
 24
1.000000000000000E+20
 34
1.000000000000000E+20
 15
-1.000000000000000E+20
 25
-1.000000000000000E+20
 35
-1.000000000000000E+20
146
0.0
 13
0.0
 23
0.0
 33
0.0
 16
1.0
 26
0.0
 36
0.0
 17
0.0
 27
1.0
 37
0.0
 76
     0
330
B
  0
LAYOUT
  5
20
102
{ACAD_XDICTIONARY
360
73CA
102
}
102
{ACAD_REACTORS
330
1E
102
}
330
1E
100
AcDbPlotSettings
  1

  2

  4

  6

 40
0.0
 41
0.0
 42
0.0
 43
0.0
 44
0.0
 45
0.0
 46
0.0
 47
0.0
 48
0.0
 49
0.0
140
0.0
141
0.0
142
1.0
143
1.0
 70
  1024
 72
     0
 73
     0
 74
     0
  7

 75
     0
147
1.0
148
0.0
149
0.0
100
AcDbLayout
  1
Model
 70
     0
 71
     0
 10
0.0
 20
0.0
 11
0.0
 21
0.0
 12
0.0
 22
0.0
 32
0.0
 14
0.0
 24
0.0
 34
0.0
 15
0.0
 25
0.0
 35
0.0
146
0.0
 13
0.0
 23
0.0
 33
0.0
 16
0.0
 26
0.0
 36
0.0
 17
0.0
 27
0.0
 37
0.0
 76
     0
330
A
331
15
  0
MATERIAL
  5
3967
102
{ACAD_XDICTIONARY
360
3968
102
}
102
{ACAD_REACTORS
330
395E
102
}
330
395E
100
AcDbMaterial
  1
ByBlock
 72
     0
 43
0.0208333333333333
 43
0.0
 43
0.0
 43
0.0
 43
0.0
 43
0.0208333333333333
 43
0.0
 43
0.0
 43
0.0
 43
0.0
 43
1.0
 43
0.0
 43
0.0
 43
0.0
 43
0.0
 43
1.0
 77
     0
 47
0.0208333333333333
 47
0.0
 47
0.0
 47
0.0
 47
0.0
 47
0.0208333333333333
 47
0.0
 47
0.0
 47
0.0
 47
0.0
 47
1.0
 47
0.0
 47
0.0
 47
0.0
 47
0.0
 47
1.0
171
     0
 49
0.0208333333333333
 49
0.0
 49
0.0
 49
0.0
 49
0.0
 49
0.0208333333333333
 49
0.0
 49
0.0
 49
0.0
 49
0.0
 49
1.0
 49
0.0
 49
0.0
 49
0.0
 49
0.0
 49
1.0
175
     0
142
0.0208333333333333
142
0.0
142
0.0
142
0.0
142
0.0
142
0.0208333333333333
142
0.0
142
0.0
142
0.0
142
0.0
142
1.0
142
0.0
142
0.0
142
0.0
142
0.0
142
1.0
179
     0
144
0.0208333333333333
144
0.0
144
0.0
144
0.0
144
0.0
144
0.0208333333333333
144
0.0
144
0.0
144
0.0
144
0.0
144
1.0
144
0.0
144
0.0
144
0.0
144
0.0
144
1.0
147
0.0208333333333333
147
0.0
147
0.0
147
0.0
147
0.0
147
0.0208333333333333
147
0.0
147
0.0
147
0.0
147
0.0
147
1.0
147
0.0
147
0.0
147
0.0
147
0.0
147
1.0
  0
MATERIAL
  5
395F
102
{ACAD_XDICTIONARY
360
3960
102
}
102
{ACAD_REACTORS
330
395E
102
}
330
395E
100
AcDbMaterial
  1
ByLayer
 72
     0
 43
0.0208333333333333
 43
0.0
 43
0.0
 43
0.0
 43
0.0
 43
0.0208333333333333
 43
0.0
 43
0.0
 43
0.0
 43
0.0
 43
1.0
 43
0.0
 43
0.0
 43
0.0
 43
0.0
 43
1.0
 77
     0
 47
0.0208333333333333
 47
0.0
 47
0.0
 47
0.0
 47
0.0
 47
0.0208333333333333
 47
0.0
 47
0.0
 47
0.0
 47
0.0
 47
1.0
 47
0.0
 47
0.0
 47
0.0
 47
0.0
 47
1.0
171
     0
 49
0.0208333333333333
 49
0.0
 49
0.0
 49
0.0
 49
0.0
 49
0.0208333333333333
 49
0.0
 49
0.0
 49
0.0
 49
0.0
 49
1.0
 49
0.0
 49
0.0
 49
0.0
 49
0.0
 49
1.0
175
     0
142
0.0208333333333333
142
0.0
142
0.0
142
0.0
142
0.0
142
0.0208333333333333
142
0.0
142
0.0
142
0.0
142
0.0
142
1.0
142
0.0
142
0.0
142
0.0
142
0.0
142
1.0
179
     0
144
0.0208333333333333
144
0.0
144
0.0
144
0.0
144
0.0
144
0.0208333333333333
144
0.0
144
0.0
144
0.0
144
0.0
144
1.0
144
0.0
144
0.0
144
0.0
144
0.0
144
1.0
147
0.0208333333333333
147
0.0
147
0.0
147
0.0
147
0.0
147
0.0208333333333333
147
0.0
147
0.0
147
0.0
147
0.0
147
1.0
147
0.0
147
0.0
147
0.0
147
0.0
147
1.0
  0
MATERIAL
  5
396F
102
{ACAD_XDICTIONARY
360
3970
102
}
102
{ACAD_REACTORS
330
395E
102
}
330
395E
100
AcDbMaterial
  1
Global
 72
     0
 43
0.0208333333333333
 43
0.0
 43
0.0
 43
0.0
 43
0.0
 43
0.0208333333333333
 43
0.0
 43
0.0
 43
0.0
 43
0.0
 43
1.0
 43
0.0
 43
0.0
 43
0.0
 43
0.0
 43
1.0
 77
     0
 47
0.0208333333333333
 47
0.0
 47
0.0
 47
0.0
 47
0.0
 47
0.0208333333333333
 47
0.0
 47
0.0
 47
0.0
 47
0.0
 47
1.0
 47
0.0
 47
0.0
 47
0.0
 47
0.0
 47
1.0
171
     0
 49
0.0208333333333333
 49
0.0
 49
0.0
 49
0.0
 49
0.0
 49
0.0208333333333333
 49
0.0
 49
0.0
 49
0.0
 49
0.0
 49
1.0
 49
0.0
 49
0.0
 49
0.0
 49
0.0
 49
1.0
175
     0
142
0.0208333333333333
142
0.0
142
0.0
142
0.0
142
0.0
142
0.0208333333333333
142
0.0
142
0.0
142
0.0
142
0.0
142
1.0
142
0.0
142
0.0
142
0.0
142
0.0
142
1.0
179
     0
144
0.0208333333333333
144
0.0
144
0.0
144
0.0
144
0.0
144
0.0208333333333333
144
0.0
144
0.0
144
0.0
144
0.0
144
1.0
144
0.0
144
0.0
144
0.0
144
0.0
144
1.0
147
0.0208333333333333
147
0.0
147
0.0
147
0.0
147
0.0
147
0.0208333333333333
147
0.0
147
0.0
147
0.0
147
0.0
147
1.0
147
0.0
147
0.0
147
0.0
147
0.0
147
1.0
  0
MLEADERSTYLE
  5
39AE
102
{ACAD_REACTORS
330
39AD
102
}
330
39AD
100
AcDbMLeaderStyle
170
     2
171
     1
172
     0
 90
        2
 40
0.0
 41
0.0
173
     1
 91
-1056964608
340
11
 92
       -2
290
     1
 42
2.0
291
     1
 43
0.36
  3
Standard
 44
4.0
300

342
17
174
     1
178
     6
175
     1
176
     0
 93
-1056964608
 45
4.0
292
     0
297
     0
 46
4.0
 94
-1056964608
 47
1.0
 49
1.0
140
1.0
293
     1
141
0.0
294
     1
177
     0
142
1.0
295
     0
296
     0
143
0.125
1001
ACAD_MLEADERVER
1070
     2
  0
MLINESTYLE
  5
1C
102
{ACAD_REACTORS
330
1B
102
}
330
1B
100
AcDbMlineStyle
  2
STANDARD
 70
     0
  3

 62
     0
 51
90.0
 52
90.0
 71
     2
 49
0.5
 62
   256
  6
BYLAYER
 49
-0.5
 62
   256
  6
BYLAYER
  0
ACDBPLACEHOLDER
  5
1D
102
{ACAD_REACTORS
330
1F
102
}
330
1F
  0
SCALE
  5
398C
102
{ACAD_REACTORS
330
398B
102
}
330
398B
100
AcDbScale
 70
     0
300
1:1
140
1.0
141
1.0
290
     1
  0
SCALE
  5
398D
102
{ACAD_REACTORS
330
398B
102
}
330
398B
100
AcDbScale
 70
     0
300
1:2
140
1.0
141
2.0
290
     0
  0
SCALE
  5
398E
102
{ACAD_REACTORS
330
398B
102
}
330
398B
100
AcDbScale
 70
     0
300
1:4
140
1.0
141
4.0
290
     0
  0
SCALE
  5
398F
102
{ACAD_REACTORS
330
398B
102
}
330
398B
100
AcDbScale
 70
     0
300
1:5
140
1.0
141
5.0
290
     0
  0
SCALE
  5
3990
102
{ACAD_REACTORS
330
398B
102
}
330
398B
100
AcDbScale
 70
     0
300
1:8
140
1.0
141
8.0
290
     0
  0
SCALE
  5
3991
102
{ACAD_REACTORS
330
398B
102
}
330
398B
100
AcDbScale
 70
     0
300
1:10
140
1.0
141
10.0
290
     0
  0
SCALE
  5
3992
102
{ACAD_REACTORS
330
398B
102
}
330
398B
100
AcDbScale
 70
     0
300
1:16
140
1.0
141
16.0
290
     0
  0
SCALE
  5
3993
102
{ACAD_REACTORS
330
398B
102
}
330
398B
100
AcDbScale
 70
     0
300
1:20
140
1.0
141
20.0
290
     0
  0
SCALE
  5
3994
102
{ACAD_REACTORS
330
398B
102
}
330
398B
100
AcDbScale
 70
     0
300
1:30
140
1.0
141
30.0
290
     0
  0
SCALE
  5
3995
102
{ACAD_REACTORS
330
398B
102
}
330
398B
100
AcDbScale
 70
     0
300
1:40
140
1.0
141
40.0
290
     0
  0
SCALE
  5
3996
102
{ACAD_REACTORS
330
398B
102
}
330
398B
100
AcDbScale
 70
     0
300
1:50
140
1.0
141
50.0
290
     0
  0
SCALE
  5
3997
102
{ACAD_REACTORS
330
398B
102
}
330
398B
100
AcDbScale
 70
     0
300
1:100
140
1.0
141
100.0
290
     0
  0
SCALE
  5
3998
102
{ACAD_REACTORS
330
398B
102
}
330
398B
100
AcDbScale
 70
     0
300
2:1
140
2.0
141
1.0
290
     0
  0
SCALE
  5
3999
102
{ACAD_REACTORS
330
398B
102
}
330
398B
100
AcDbScale
 70
     0
300
4:1
140
4.0
141
1.0
290
     0
  0
SCALE
  5
399A
102
{ACAD_REACTORS
330
398B
102
}
330
398B
100
AcDbScale
 70
     0
300
8:1
140
8.0
141
1.0
290
     0
  0
SCALE
  5
399B
102
{ACAD_REACTORS
330
398B
102
}
330
398B
100
AcDbScale
 70
     0
300
10:1
140
10.0
141
1.0
290
     0
  0
SCALE
  5
399C
102
{ACAD_REACTORS
330
398B
102
}
330
398B
100
AcDbScale
 70
     0
300
100:1
140
100.0
141
1.0
290
     0
  0
SCALE
  5
399D
102
{ACAD_REACTORS
330
398B
102
}
330
398B
100
AcDbScale
 70
     0
300
1/128" = 1'-0"
140
0.0078125
141
12.0
290
     0
  0
SCALE
  5
399E
102
{ACAD_REACTORS
330
398B
102
}
330
398B
100
AcDbScale
 70
     0
300
1/64" = 1'-0"
140
0.015625
141
12.0
290
     0
  0
SCALE
  5
399F
102
{ACAD_REACTORS
330
398B
102
}
330
398B
100
AcDbScale
 70
     0
300
1/32" = 1'-0"
140
0.03125
141
12.0
290
     0
  0
SCALE
  5
39A0
102
{ACAD_REACTORS
330
398B
102
}
330
398B
100
AcDbScale
 70
     0
300
1/16" = 1'-0"
140
0.0625
141
12.0
290
     0
  0
SCALE
  5
39A1
102
{ACAD_REACTORS
330
398B
102
}
330
398B
100
AcDbScale
 70
     0
300
3/32" = 1'-0"
140
0.09375
141
12.0
290
     0
  0
SCALE
  5
39A2
102
{ACAD_REACTORS
330
398B
102
}
330
398B
100
AcDbScale
 70
     0
300
1/8" = 1'-0"
140
0.125
141
12.0
290
     0
  0
SCALE
  5
39A3
102
{ACAD_REACTORS
330
398B
102
}
330
398B
100
AcDbScale
 70
     0
300
3/16" = 1'-0"
140
0.1875
141
12.0
290
     0
  0
SCALE
  5
39A4
102
{ACAD_REACTORS
330
398B
102
}
330
398B
100
AcDbScale
 70
     0
300
1/4" = 1'-0"
140
0.25
141
12.0
290
     0
  0
SCALE
  5
39A5
102
{ACAD_REACTORS
330
398B
102
}
330
398B
100
AcDbScale
 70
     0
300
3/8" = 1'-0"
140
0.375
141
12.0
290
     0
  0
SCALE
  5
39A6
102
{ACAD_REACTORS
330
398B
102
}
330
398B
100
AcDbScale
 70
     0
300
1/2" = 1'-0"
140
0.5
141
12.0
290
     0
  0
SCALE
  5
39A7
102
{ACAD_REACTORS
330
398B
102
}
330
398B
100
AcDbScale
 70
     0
300
3/4" = 1'-0"
140
0.75
141
12.0
290
     0
  0
SCALE
  5
39A8
102
{ACAD_REACTORS
330
398B
102
}
330
398B
100
AcDbScale
 70
     0
300
1" = 1'-0"
140
1.0
141
12.0
290
     0
  0
SCALE
  5
39A9
102
{ACAD_REACTORS
330
398B
102
}
330
398B
100
AcDbScale
 70
     0
300
1-1/2" = 1'-0"
140
1.5
141
12.0
290
     0
  0
SCALE
  5
39AA
102
{ACAD_REACTORS
330
398B
102
}
330
398B
100
AcDbScale
 70
     0
300
3" = 1'-0"
140
3.0
141
12.0
290
     0
  0
SCALE
  5
39AB
102
{ACAD_REACTORS
330
398B
102
}
330
398B
100
AcDbScale
 70
     0
300
6" = 1'-0"
140
6.0
141
12.0
290
     0
  0
SCALE
  5
39AC
102
{ACAD_REACTORS
330
398B
102
}
330
398B
100
AcDbScale
 70
     0
300
1'-0" = 1'-0"
140
12.0
141
12.0
290
     0
  0
TABLESTYLE
  5
398A
102
{ACAD_XDICTIONARY
360
72EA
102
}
102
{ACAD_REACTORS
330
3989
102
}
330
3989
100
AcDbTableStyle
  3
Standard
 70
     0
 71
     0
 40
1.5
 41
1.5
280
     0
281
     0
  7
Standard
140
4.5
170
     2
 62
     0
 63
     7
283
     0
274
    -2
284
     1
 64
     0
275
    -2
285
     1
 65
     0
276
    -2
286
     1
 66
     0
277
    -2
287
     1
 67
     0
278
    -2
288
     1
 68
     0
279
    -2
289
     1
 69
     0
  7
Standard
140
6.0
170
     5
 62
     0
 63
     7
283
     0
274
    -2
284
     1
 64
     0
275
    -2
285
     1
 65
     0
276
    -2
286
     1
 66
     0
277
    -2
287
     1
 67
     0
278
    -2
288
     1
 68
     0
279
    -2
289
     1
 69
     0
  7
Standard
140
4.5
170
     5
 62
     0
 63
     7
283
     0
274
    -2
284
     1
 64
     0
275
    -2
285
     1
 65
     0
276
    -2
286
     1
 66
     0
277
    -2
287
     1
 67
     0
278
    -2
288
     1
 68
     0
279
    -2
289
     1
 69
     0
  0
VISUALSTYLE
  5
397D
102
{ACAD_REACTORS
330
3977
102
}
330
3977
100
AcDbVisualStyle
  2
2dWireframe
 70
     4
 71
     0
 72
     2
 73
     0
 90
        0
 40
-0.6
 41
-30.0
 62
     5
 63
     7
 74
     1
 91
        4
 64
     7
 65
   257
 75
     1
175
     1
 42
1.0
 92
        0
 66
   257
 43
1.0
 76
     1
 77
     6
 78
     2
 67
     7
 79
     5
170
     0
171
     0
290
     0
174
     0
 93
        1
 44
0.0
173
     0
291
     0
 45
0.0
1001
ACAD
1000
AcDbSavedByObjectVersion
1070
     0
1000
AcDbSavedByObjectVersion
1070
     0
1000
AcDbSavedByObjectVersion
1070
     0
1000
AcDbSavedByObjectVersion
1070
     0
1000
AcDbSavedByObjectVersion
1070
     0
  0
VISUALSTYLE
  5
397F
102
{ACAD_REACTORS
330
3977
102
}
330
3977
100
AcDbVisualStyle
  2
3D Hidden
 70
     6
 71
     1
 72
     2
 73
     2
 90
        0
 40
-0.6
 41
-30.0
 62
     5
 63
     7
 74
     2
 91
        2
 64
     7
 65
   257
 75
     2
175
     1
 42
40.0
 92
        0
 66
   257
 43
1.0
 76
     1
 77
     6
 78
     2
 67
     7
 79
     3
170
     0
171
     0
290
     0
174
     0
 93
        1
 44
0.0
173
     0
291
     0
 45
0.0
1001
ACAD
1000
AcDbSavedByObjectVersion
1070
     0
1000
AcDbSavedByObjectVersion
1070
     0
1000
AcDbSavedByObjectVersion
1070
     0
1000
AcDbSavedByObjectVersion
1070
     0
1000
AcDbSavedByObjectVersion
1070
     0
  0
VISUALSTYLE
  5
397E
102
{ACAD_REACTORS
330
3977
102
}
330
3977
100
AcDbVisualStyle
  2
3dWireframe
 70
     5
 71
     0
 72
     2
 73
     0
 90
        0
 40
-0.6
 41
-30.0
 62
     5
 63
     7
 74
     1
 91
        4
 64
     7
 65
   257
 75
     1
175
     1
 42
1.0
 92
        0
 66
   257
 43
1.0
 76
     1
 77
     6
 78
     2
 67
     7
 79
     5
170
     0
171
     0
290
     0
174
     0
 93
        1
 44
0.0
173
     0
291
     0
 45
0.0
1001
ACAD
1000
AcDbSavedByObjectVersion
1070
     0
1000
AcDbSavedByObjectVersion
1070
     0
1000
AcDbSavedByObjectVersion
1070
     0
1000
AcDbSavedByObjectVersion
1070
     0
1000
AcDbSavedByObjectVersion
1070
     0
  0
VISUALSTYLE
  5
397C
102
{ACAD_REACTORS
330
3977
102
}
330
3977
100
AcDbVisualStyle
  2
Basic
 70
     7
 71
     1
 72
     0
 73
     1
 90
        0
 40
-0.6
 41
-30.0
 62
     5
 63
     7
 74
     0
 91
        4
 64
     7
 65
   257
 75
     1
175
     1
 42
1.0
 92
        8
 66
     7
 43
1.0
 76
     1
 77
     6
 78
     2
 67
     7
 79
     5
170
     0
171
     0
290
     0
174
     0
 93
        1
 44
0.0
173
     0
291
     1
 45
0.0
1001
ACAD
1000
AcDbSavedByObjectVersion
1070
     0
1000
AcDbSavedByObjectVersion
1070
     0
1000
AcDbSavedByObjectVersion
1070
     0
1000
AcDbSavedByObjectVersion
1070
     0
1000
AcDbSavedByObjectVersion
1070
     0
  0
VISUALSTYLE
  5
3983
102
{ACAD_REACTORS
330
3977
102
}
330
3977
100
AcDbVisualStyle
  2
Brighten
 70
    12
 71
     2
 72
     2
 73
     0
 90
        0
 40
-0.6
 41
-30.0
 62
     5
 63
     7
 74
     1
 91
        4
 64
     7
 65
   257
 75
     1
175
     1
 42
1.0
 92
        8
 66
     7
 43
1.0
 76
     1
 77
     6
 78
     2
 67
     7
 79
     5
170
     0
171
     0
290
     0
174
     0
 93
        1
 44
50.0
173
     0
291
     1
 45
0.0
1001
ACAD
1000
AcDbSavedByObjectVersion
1070
     0
1000
AcDbSavedByObjectVersion
1070
     0
1000
AcDbSavedByObjectVersion
1070
     0
1000
AcDbSavedByObjectVersion
1070
     0
1000
AcDbSavedByObjectVersion
1070
     0
  0
VISUALSTYLE
  5
3987
102
{ACAD_REACTORS
330
3977
102
}
330
3977
100
AcDbVisualStyle
  2
ColorChange
 70
    16
 71
     2
 72
     2
 73
     3
 90
        0
 40
-0.6
 41
-30.0
 62
     5
 63
     8
 74
     1
 91
        4
 64
     7
 65
   257
 75
     1
175
     1
 42
1.0
 92
        8
 66
     8
 43
1.0
 76
     1
 77
     6
 78
     2
 67
     7
 79
     5
170
     0
171
     0
290
     0
174
     0
 93
        1
 44
0.0
173
     0
291
     1
 45
0.0
1001
ACAD
1000
AcDbSavedByObjectVersion
1070
     0
1000
AcDbSavedByObjectVersion
1070
     0
1000
AcDbSavedByObjectVersion
1070
     0
1000
AcDbSavedByObjectVersion
1070
     0
1000
AcDbSavedByObjectVersion
1070
     0
  0
VISUALSTYLE
  5
3980
102
{ACAD_REACTORS
330
3977
102
}
330
3977
100
AcDbVisualStyle
  2
Conceptual
 70
     9
 71
     3
 72
     2
 73
     0
 90
        0
 40
-0.6
 41
-30.0
 62
     5
 63
     7
 74
     2
 91
        2
 64
     7
 65
   257
 75
     1
175
     1
 42
40.0
 92
        8
 66
     7
 43
1.0
 76
     1
 77
     6
 78
     2
 67
     7
 79
     3
170
     0
171
     0
290
     0
174
     0
 93
        1
 44
0.0
173
     0
291
     0
 45
0.0
1001
ACAD
1000
AcDbSavedByObjectVersion
1070
     0
1000
AcDbSavedByObjectVersion
1070
     0
1000
AcDbSavedByObjectVersion
1070
     0
1000
AcDbSavedByObjectVersion
1070
     0
1000
AcDbSavedByObjectVersion
1070
     0
  0
VISUALSTYLE
  5
3982
102
{ACAD_REACTORS
330
3977
102
}
330
3977
100
AcDbVisualStyle
  2
Dim
 70
    11
 71
     2
 72
     2
 73
     0
 90
        0
 40
-0.6
 41
-30.0
 62
     5
 63
     7
 74
     1
 91
        4
 64
     7
 65
   257
 75
     1
175
     1
 42
1.0
 92
        8
 66
     7
 43
1.0
 76
     1
 77
     6
 78
     2
 67
     7
 79
     5
170
     0
171
     0
290
     0
174
     0
 93
        1
 44
-50.0
173
     0
291
     1
 45
0.0
1001
ACAD
1000
AcDbSavedByObjectVersion
1070
     0
1000
AcDbSavedByObjectVersion
1070
     0
1000
AcDbSavedByObjectVersion
1070
     0
1000
AcDbSavedByObjectVersion
1070
     0
1000
AcDbSavedByObjectVersion
1070
     0
  0
VISUALSTYLE
  5
3986
102
{ACAD_REACTORS
330
3977
102
}
330
3977
100
AcDbVisualStyle
  2
Facepattern
 70
    15
 71
     2
 72
     2
 73
     0
 90
        0
 40
-0.6
 41
-30.0
 62
     5
 63
     7
 74
     1
 91
        4
 64
     7
 65
   257
 75
     1
175
     1
 42
1.0
 92
        8
 66
     7
 43
1.0
 76
     1
 77
     6
 78
     2
 67
     7
 79
     5
170
     0
171
     0
290
     0
174
     0
 93
        1
 44
0.0
173
     0
291
     1
 45
0.0
1001
ACAD
1000
AcDbSavedByObjectVersion
1070
     0
1000
AcDbSavedByObjectVersion
1070
     0
1000
AcDbSavedByObjectVersion
1070
     0
1000
AcDbSavedByObjectVersion
1070
     0
1000
AcDbSavedByObjectVersion
1070
     0
  0
VISUALSTYLE
  5
3978
102
{ACAD_REACTORS
330
3977
102
}
330
3977
100
AcDbVisualStyle
  2
Flat
 70
     0
 71
     2
 72
     1
 73
     1
 90
        2
 40
-0.6
 41
30.0
 62
     5
 63
     7
 74
     0
 91
        4
 64
     7
 65
   257
 75
     1
175
     1
 42
1.0
 92
        8
 66
     7
 43
1.0
 76
     1
 77
     6
 78
     2
 67
     7
 79
     5
170
     0
171
     0
290
     0
174
     0
 93
       13
 44
0.0
173
     0
291
     1
 45
0.0
1001
ACAD
1000
AcDbSavedByObjectVersion
1070
     0
1000
AcDbSavedByObjectVersion
1070
     0
1000
AcDbSavedByObjectVersion
1070
     0
1000
AcDbSavedByObjectVersion
1070
     0
1000
AcDbSavedByObjectVersion
1070
     0
  0
VISUALSTYLE
  5
3979
102
{ACAD_REACTORS
330
3977
102
}
330
3977
100
AcDbVisualStyle
  2
FlatWithEdges
 70
     1
 71
     2
 72
     1
 73
     1
 90
        2
 40
-0.6
 41
30.0
 62
     5
 63
     7
 74
     1
 91
        4
 64
     7
 65
   257
 75
     1
175
     1
 42
1.0
 92
        0
 66
   257
 43
1.0
 76
     1
 77
     6
 78
     2
 67
     7
 79
     5
170
     0
171
     0
290
     0
174
     0
 93
       13
 44
0.0
173
     0
291
     1
 45
0.0
1001
ACAD
1000
AcDbSavedByObjectVersion
1070
     0
1000
AcDbSavedByObjectVersion
1070
     0
1000
AcDbSavedByObjectVersion
1070
     0
1000
AcDbSavedByObjectVersion
1070
     0
1000
AcDbSavedByObjectVersion
1070
     0
  0
VISUALSTYLE
  5
397A
102
{ACAD_REACTORS
330
3977
102
}
330
3977
100
AcDbVisualStyle
  2
Gouraud
 70
     2
 71
     2
 72
     2
 73
     1
 90
        2
 40
-0.6
 41
30.0
 62
     5
 63
     7
 74
     0
 91
        4
 64
     7
 65
   257
 75
     1
175
     1
 42
1.0
 92
        0
 66
     7
 43
1.0
 76
     1
 77
     6
 78
     2
 67
     7
 79
     5
170
     0
171
     0
290
     0
174
     0
 93
       13
 44
0.0
173
     0
291
     1
 45
0.0
1001
ACAD
1000
AcDbSavedByObjectVersion
1070
     0
1000
AcDbSavedByObjectVersion
1070
     0
1000
AcDbSavedByObjectVersion
1070
     0
1000
AcDbSavedByObjectVersion
1070
     0
1000
AcDbSavedByObjectVersion
1070
     0
  0
VISUALSTYLE
  5
397B
102
{ACAD_REACTORS
330
3977
102
}
330
3977
100
AcDbVisualStyle
  2
GouraudWithEdges
 70
     3
 71
     2
 72
     2
 73
     1
 90
        2
 40
-0.6
 41
30.0
 62
     5
 63
     7
 74
     1
 91
        4
 64
     7
 65
   257
 75
     1
175
     1
 42
1.0
 92
        0
 66
   257
 43
1.0
 76
     1
 77
     6
 78
     2
 67
     7
 79
     5
170
     0
171
     0
290
     0
174
     0
 93
       13
 44
0.0
173
     0
291
     1
 45
0.0
1001
ACAD
1000
AcDbSavedByObjectVersion
1070
     0
1000
AcDbSavedByObjectVersion
1070
     0
1000
AcDbSavedByObjectVersion
1070
     0
1000
AcDbSavedByObjectVersion
1070
     0
1000
AcDbSavedByObjectVersion
1070
     0
  0
VISUALSTYLE
  5
3985
102
{ACAD_REACTORS
330
3977
102
}
330
3977
100
AcDbVisualStyle
  2
Linepattern
 70
    14
 71
     2
 72
     2
 73
     0
 90
        0
 40
-0.6
 41
-30.0
 62
     5
 63
     7
 74
     1
 91
        4
 64
     7
 65
   257
 75
     7
175
     7
 42
1.0
 92
        8
 66
     7
 43
1.0
 76
     1
 77
     6
 78
     2
 67
     7
 79
     5
170
     0
171
     0
290
     0
174
     0
 93
        1
 44
0.0
173
     0
291
     1
 45
0.0
1001
ACAD
1000
AcDbSavedByObjectVersion
1070
     0
1000
AcDbSavedByObjectVersion
1070
     0
1000
AcDbSavedByObjectVersion
1070
     0
1000
AcDbSavedByObjectVersion
1070
     0
1000
AcDbSavedByObjectVersion
1070
     0
  0
VISUALSTYLE
  5
3981
102
{ACAD_REACTORS
330
3977
102
}
330
3977
100
AcDbVisualStyle
  2
Realistic
 70
     8
 71
     2
 72
     2
 73
     0
 90
        0
 40
-0.6
 41
-30.0
 62
     5
 63
     7
 74
     1
 91
        0
 64
     7
 65
   257
 75
     1
175
     1
 42
1.0
 92
        8
 66
     8
 43
1.0
 76
     1
 77
     6
 78
     2
 67
     7
 79
     5
170
     0
171
     0
290
     0
174
     0
 93
       13
 44
0.0
173
     0
291
     0
 45
0.0
1001
ACAD
1000
AcDbSavedByObjectVersion
1070
     0
1000
AcDbSavedByObjectVersion
1070
     0
1000
AcDbSavedByObjectVersion
1070
     0
1000
AcDbSavedByObjectVersion
1070
     0
1000
AcDbSavedByObjectVersion
1070
     0
  0
VISUALSTYLE
  5
3984
102
{ACAD_REACTORS
330
3977
102
}
330
3977
100
AcDbVisualStyle
  2
Thicken
 70
    13
 71
     2
 72
     2
 73
     0
 90
        0
 40
-0.6
 41
-30.0
 62
     5
 63
     7
 74
     1
 91
        4
 64
     7
 65
   257
 75
     1
175
     1
 42
1.0
 92
       12
 66
     7
 43
1.0
 76
     1
 77
     6
 78
     2
 67
     7
 79
     5
170
     0
171
     0
290
     0
174
     0
 93
        1
 44
0.0
173
     0
291
     1
 45
0.0
1001
ACAD
1000
AcDbSavedByObjectVersion
1070
     0
1000
AcDbSavedByObjectVersion
1070
     0
1000
AcDbSavedByObjectVersion
1070
     0
1000
AcDbSavedByObjectVersion
1070
     0
1000
AcDbSavedByObjectVersion
1070
     0
  0
DICTIONARYVAR
  5
72CE
102
{ACAD_REACTORS
330
72CB
102
}
330
72CB
100
DictionaryVariables
280
     0
  1
1:1
  0
DICTIONARYVAR
  5
72CD
102
{ACAD_REACTORS
330
72CB
102
}
330
72CB
100
DictionaryVariables
280
     0
  1
STANDARD
  0
DICTIONARYVAR
  5
72CC
102
{ACAD_REACTORS
330
72CB
102
}
330
72CB
100
DictionaryVariables
280
     0
  1
STANDARD
  0
DICTIONARYVAR
  5
72D1
102
{ACAD_REACTORS
330
72CB
102
}
330
72CB
100
DictionaryVariables
280
     0
  1
1
  0
DICTIONARYVAR
  5
72D0
102
{ACAD_REACTORS
330
72CB
102
}
330
72CB
100
DictionaryVariables
280
     0
  1
0
  0
DICTIONARYVAR
  5
72CF
102
{ACAD_REACTORS
330
72CB
102
}
330
72CB
100
DictionaryVariables
280
     0
  1
127
  0
XRECORD
  5
72C8
102
{ACAD_REACTORS
330
72C6
102
}
330
72C6
100
AcDbXrecord
280
     1
  0
DICTIONARY
  5
73CC
330
21
100
AcDbDictionary
280
     1
281
     1
  3
ACAD_XREC_ROUNDTRIP
360
73CD
  0
DICTIONARY
  5
73CA
330
20
100
AcDbDictionary
280
     1
281
     1
  3
ACAD_XREC_ROUNDTRIP
360
73CB
  0
DICTIONARY
  5
3968
330
3967
100
AcDbDictionary
280
     1
281
     1
  3
ACAD_XREC_ROUNDTRIP
360
72F3
  3
BUMPTILE
360
396A
  3
DIFFUSETILE
360
3969
  3
OPACITYTILE
360
396D
  3
REFLECTIONTILE
360
396C
  3
REFRACTIONTILE
360
396E
  3
SPECULARTILE
360
396B
  0
DICTIONARY
  5
3960
330
395F
100
AcDbDictionary
280
     1
281
     1
  3
ACAD_XREC_ROUNDTRIP
360
72F2
  3
BUMPTILE
360
3962
  3
DIFFUSETILE
360
3961
  3
OPACITYTILE
360
3965
  3
REFLECTIONTILE
360
3964
  3
REFRACTIONTILE
360
3966
  3
SPECULARTILE
360
3963
  0
DICTIONARY
  5
3970
330
396F
100
AcDbDictionary
280
     1
281
     1
  3
ACAD_XREC_ROUNDTRIP
360
72F4
  3
BUMPTILE
360
3972
  3
DIFFUSETILE
360
3971
  3
OPACITYTILE
360
3975
  3
REFLECTIONTILE
360
3974
  3
REFRACTIONTILE
360
3976
  3
SPECULARTILE
360
3973
  0
DICTIONARY
  5
72EA
330
398A
100
AcDbDictionary
280
     1
281
     1
  3
ACAD_ROUNDTRIP_2008_TABLESTYLE_CELLSTYLEMAP
360
73C8
  3
ACAD_XREC_ROUNDTRIP
360
73CE
  0
XRECORD
  5
73CD
102
{ACAD_REACTORS
330
73CC
102
}
330
73CC
100
AcDbXrecord
280
     1
102
SHADEPLOT
 70
     0
102
SHADEPLOTRESLEVEL
 70
     2
102
SHADEPLOTCUSTOMDPI
 70
   300
  0
XRECORD
  5
73CB
102
{ACAD_REACTORS
330
73CA
102
}
330
73CA
100
AcDbXrecord
280
     1
102
SHADEPLOT
 70
     0
102
SHADEPLOTRESLEVEL
 70
     2
102
SHADEPLOTCUSTOMDPI
 70
   300
  0
XRECORD
  5
72F3
102
{ACAD_REACTORS
330
3968
102
}
330
3968
100
AcDbXrecord
280
     1
102
MATERIAL
148
0.0
149
0.0
149
0.0
 93
        0
 94
      127
282
     0
 72
     0
 77
     0
171
     0
175
     0
179
     0
273
     0
  0
XRECORD
  5
396A
102
{ACAD_REACTORS
330
3968
102
}
330
3968
100
AcDbXrecord
280
     1
270
     1
271
     1
  0
XRECORD
  5
3969
102
{ACAD_REACTORS
330
3968
102
}
330
3968
100
AcDbXrecord
280
     1
270
     1
271
     1
  0
XRECORD
  5
396D
102
{ACAD_REACTORS
330
3968
102
}
330
3968
100
AcDbXrecord
280
     1
270
     1
271
     1
  0
XRECORD
  5
396C
102
{ACAD_REACTORS
330
3968
102
}
330
3968
100
AcDbXrecord
280
     1
270
     1
271
     1
  0
XRECORD
  5
396E
102
{ACAD_REACTORS
330
3968
102
}
330
3968
100
AcDbXrecord
280
     1
270
     1
271
     1
  0
XRECORD
  5
396B
102
{ACAD_REACTORS
330
3968
102
}
330
3968
100
AcDbXrecord
280
     1
270
     1
271
     1
  0
XRECORD
  5
72F2
102
{ACAD_REACTORS
330
3960
102
}
330
3960
100
AcDbXrecord
280
     1
102
MATERIAL
148
0.0
149
0.0
149
0.0
 93
        0
 94
      127
282
     0
 72
     0
 77
     0
171
     0
175
     0
179
     0
273
     0
  0
XRECORD
  5
3962
102
{ACAD_REACTORS
330
3960
102
}
330
3960
100
AcDbXrecord
280
     1
270
     1
271
     1
  0
XRECORD
  5
3961
102
{ACAD_REACTORS
330
3960
102
}
330
3960
100
AcDbXrecord
280
     1
270
     1
271
     1
  0
XRECORD
  5
3965
102
{ACAD_REACTORS
330
3960
102
}
330
3960
100
AcDbXrecord
280
     1
270
     1
271
     1
  0
XRECORD
  5
3964
102
{ACAD_REACTORS
330
3960
102
}
330
3960
100
AcDbXrecord
280
     1
270
     1
271
     1
  0
XRECORD
  5
3966
102
{ACAD_REACTORS
330
3960
102
}
330
3960
100
AcDbXrecord
280
     1
270
     1
271
     1
  0
XRECORD
  5
3963
102
{ACAD_REACTORS
330
3960
102
}
330
3960
100
AcDbXrecord
280
     1
270
     1
271
     1
  0
XRECORD
  5
72F4
102
{ACAD_REACTORS
330
3970
102
}
330
3970
100
AcDbXrecord
280
     1
102
MATERIAL
148
0.0
149
0.0
149
0.0
 93
        0
 94
      127
282
     0
 72
     0
 77
     0
171
     0
175
     0
179
     0
273
     0
  0
XRECORD
  5
3972
102
{ACAD_REACTORS
330
3970
102
}
330
3970
100
AcDbXrecord
280
     1
270
     1
271
     1
  0
XRECORD
  5
3971
102
{ACAD_REACTORS
330
3970
102
}
330
3970
100
AcDbXrecord
280
     1
270
     1
271
     1
  0
XRECORD
  5
3975
102
{ACAD_REACTORS
330
3970
102
}
330
3970
100
AcDbXrecord
280
     1
270
     1
271
     1
  0
XRECORD
  5
3974
102
{ACAD_REACTORS
330
3970
102
}
330
3970
100
AcDbXrecord
280
     1
270
     1
271
     1
  0
XRECORD
  5
3976
102
{ACAD_REACTORS
330
3970
102
}
330
3970
100
AcDbXrecord
280
     1
270
     1
271
     1
  0
XRECORD
  5
3973
102
{ACAD_REACTORS
330
3970
102
}
330
3970
100
AcDbXrecord
280
     1
270
     1
271
     1
  0
CELLSTYLEMAP
  5
73C8
102
{ACAD_REACTORS
330
72EA
102
}
330
72EA
100
AcDbCellStyleMap
 90
        3
300
CELLSTYLE
  1
TABLEFORMAT_BEGIN
 90
        5
170
     1
 91
        0
 92
    32768
 62
   257
 93
        1
300
CONTENTFORMAT
  1
CONTENTFORMAT_BEGIN
 90
        0
 91
        0
 92
      512
 93
        0
300

 40
0.0
140
1.0
 94
        5
 62
     0
340
17
144
6.0
309
CONTENTFORMAT_END
171
     1
301
MARGIN
  1
CELLMARGIN_BEGIN
 40
1.5
 40
1.5
 40
1.5
 40
1.5
 40
0.18
 40
0.18
309
CELLMARGIN_END
 94
        6
 95
        1
302
GRIDFORMAT
  1
GRIDFORMAT_BEGIN
 90
        0
 91
        1
 62
     0
 92
       -2
340
0
 93
        0
 40
1.125
309
GRIDFORMAT_END
 95
        2
302
GRIDFORMAT
  1
GRIDFORMAT_BEGIN
 90
        0
 91
        1
 62
     0
 92
       -2
340
0
 93
        0
 40
1.125
309
GRIDFORMAT_END
 95
        4
302
GRIDFORMAT
  1
GRIDFORMAT_BEGIN
 90
        0
 91
        1
 62
     0
 92
       -2
340
0
 93
        0
 40
1.125
309
GRIDFORMAT_END
 95
        8
302
GRIDFORMAT
  1
GRIDFORMAT_BEGIN
 90
        0
 91
        1
 62
     0
 92
       -2
340
0
 93
        0
 40
1.125
309
GRIDFORMAT_END
 95
       16
302
GRIDFORMAT
  1
GRIDFORMAT_BEGIN
 90
        0
 91
        1
 62
     0
 92
       -2
340
0
 93
        0
 40
1.125
309
GRIDFORMAT_END
 95
       32
302
GRIDFORMAT
  1
GRIDFORMAT_BEGIN
 90
        0
 91
        1
 62
     0
 92
       -2
340
0
 93
        0
 40
1.125
309
GRIDFORMAT_END
309
TABLEFORMAT_END
  1
CELLSTYLE_BEGIN
 90
        1
 91
        1
300
_TITLE
309
CELLSTYLE_END
300
CELLSTYLE
  1
TABLEFORMAT_BEGIN
 90
        5
170
     1
 91
        0
 92
        0
 62
   257
 93
        1
300
CONTENTFORMAT
  1
CONTENTFORMAT_BEGIN
 90
        0
 91
        0
 92
      512
 93
        0
300

 40
0.0
140
1.0
 94
        5
 62
     0
340
17
144
4.5
309
CONTENTFORMAT_END
171
     1
301
MARGIN
  1
CELLMARGIN_BEGIN
 40
1.5
 40
1.5
 40
1.5
 40
1.5
 40
0.18
 40
0.18
309
CELLMARGIN_END
 94
        6
 95
        1
302
GRIDFORMAT
  1
GRIDFORMAT_BEGIN
 90
        0
 91
        1
 62
     0
 92
       -2
340
0
 93
        0
 40
1.125
309
GRIDFORMAT_END
 95
        2
302
GRIDFORMAT
  1
GRIDFORMAT_BEGIN
 90
        0
 91
        1
 62
     0
 92
       -2
340
0
 93
        0
 40
1.125
309
GRIDFORMAT_END
 95
        4
302
GRIDFORMAT
  1
GRIDFORMAT_BEGIN
 90
        0
 91
        1
 62
     0
 92
       -2
340
0
 93
        0
 40
1.125
309
GRIDFORMAT_END
 95
        8
302
GRIDFORMAT
  1
GRIDFORMAT_BEGIN
 90
        0
 91
        1
 62
     0
 92
       -2
340
0
 93
        0
 40
1.125
309
GRIDFORMAT_END
 95
       16
302
GRIDFORMAT
  1
GRIDFORMAT_BEGIN
 90
        0
 91
        1
 62
     0
 92
       -2
340
0
 93
        0
 40
1.125
309
GRIDFORMAT_END
 95
       32
302
GRIDFORMAT
  1
GRIDFORMAT_BEGIN
 90
        0
 91
        1
 62
     0
 92
       -2
340
0
 93
        0
 40
1.125
309
GRIDFORMAT_END
309
TABLEFORMAT_END
  1
CELLSTYLE_BEGIN
 90
        2
 91
        1
300
_HEADER
309
CELLSTYLE_END
300
CELLSTYLE
  1
TABLEFORMAT_BEGIN
 90
        5
170
     1
 91
        0
 92
        0
 62
   257
 93
        1
300
CONTENTFORMAT
  1
CONTENTFORMAT_BEGIN
 90
        0
 91
        0
 92
      512
 93
        0
300

 40
0.0
140
1.0
 94
        2
 62
     0
340
17
144
4.5
309
CONTENTFORMAT_END
171
     1
301
MARGIN
  1
CELLMARGIN_BEGIN
 40
1.5
 40
1.5
 40
1.5
 40
1.5
 40
0.18
 40
0.18
309
CELLMARGIN_END
 94
        6
 95
        1
302
GRIDFORMAT
  1
GRIDFORMAT_BEGIN
 90
        0
 91
        1
 62
     0
 92
       -2
340
0
 93
        0
 40
1.125
309
GRIDFORMAT_END
 95
        2
302
GRIDFORMAT
  1
GRIDFORMAT_BEGIN
 90
        0
 91
        1
 62
     0
 92
       -2
340
0
 93
        0
 40
1.125
309
GRIDFORMAT_END
 95
        4
302
GRIDFORMAT
  1
GRIDFORMAT_BEGIN
 90
        0
 91
        1
 62
     0
 92
       -2
340
0
 93
        0
 40
1.125
309
GRIDFORMAT_END
 95
        8
302
GRIDFORMAT
  1
GRIDFORMAT_BEGIN
 90
        0
 91
        1
 62
     0
 92
       -2
340
0
 93
        0
 40
1.125
309
GRIDFORMAT_END
 95
       16
302
GRIDFORMAT
  1
GRIDFORMAT_BEGIN
 90
        0
 91
        1
 62
     0
 92
       -2
340
0
 93
        0
 40
1.125
309
GRIDFORMAT_END
 95
       32
302
GRIDFORMAT
  1
GRIDFORMAT_BEGIN
 90
        0
 91
        1
 62
     0
 92
       -2
340
0
 93
        0
 40
1.125
309
GRIDFORMAT_END
309
TABLEFORMAT_END
  1
CELLSTYLE_BEGIN
 90
        3
 91
        2
300
_DATA
309
CELLSTYLE_END
  0
XRECORD
  5
73CE
102
{ACAD_REACTORS
330
72EA
102
}
330
72EA
100
AcDbXrecord
280
     1
102
ACAD_ROUNDTRIP_PRE2007_TABLESTYLE
 90
      512
 91
        0
  1

 92
      512
 93
        0
  2

 94
      512
 95
        0
  3

  0
ENDSEC
  0
EOF
